Song name
# A B C D E F G H I J K L M N O P Q R S T U V W X Y Z

Birdflesh - Night Of The Ultimate Mosh tab

Tune one half step down (Eb Ab Db Gb Bb Eb)

      Riff 1      [1,2,3,5,6,7] [4]     [8]
|----|------------------------|-------|--------------|
|----|------------------------|-------|--------------|
|----|------------------------|--3333-|--333////-----|
|----|-------3----------------|--1111-|--111////-----|
|--2-|--2----1---2-----3--4---|-------|--------------|
|--0-|--0-00---0-0-000-1--2---|-------|--------------|
          ..   .   ...
Riff 2                           [1]          [2]
|-------------------------------|------------|-----------|
|-------------------------------|------------|-----------|
|-------------------------------|------------|-----------|
|-------3---------3---------3---|----3----3--|-3-2-----2-|
|--2222---5--2222---5--2222---5-|-22-1-22-1--|-----5-4---|
|--0000------0000------0000-----|-00---00----|-----------|
   ....      ....      ....       ..   ..
Riff 3
|----------------------|------------------------|
|----------------------|------------------------|
|----------------------|------------3-2--3h6-5--| x2
|-----3------3-2-----2-|-----3------------------|
|-------5--5-----5-4---|-------5----------------|
|--00------------------|-00------0--------------|
   ..                   ..      .

Riff 4                           [1]          [2]
|-------------------------------|------------|-----------|
|-------------------------------|------------|-----------|
|--------------------3----------|------------|-----------|
|-------3---------5---------3---|----3----3--|-3-2-----2-|
|--2222---5--2222------2222---5-|-22-1-22-1--|-----5-4---|
|--0000------0000------0000-----|-00---00----|-----------|
   ...       ....      ....       ..   ..

Riff 3

Clean Break   *=10                   w/ dist pedal
|----------------------------------|-------------------|
|----------------------------------|-------------------|
|---7--*-7-*--6--9-6-9--7--*-7-*---|-------------------|
|----------------------------------|--8-7-5---------5--|
|----------------------------------|--------8-7-5-7----|
|----------------------------------|-------------------|
                                      . . . . . . . .
Riff 5
|------------------------------------------------------|
|------------------------------------------------------|
|------------------------------------------------------|
|---------------------------------8-7-5---------5------| x2
|--5--8-5-8--4--7-4-7--5--8-5-8---------8-7-5-7--------|
|------------------------------------------------------|
                                  . . . . . . . .

Riff 6a         x2  Riff 6b               x2
|------------------|------------------------|
|------------------|------------------------|
|------------------|------------------------|
|--------------3---|-----------------33-----|
|--5---2---5---1---|--55--522--255--511-----|
|--3---0---3-------|--33--300--033--3-------|

Riff 7
|-----------------------------------------------|
|-----------------------------------------------|
|-----------------5-77--------------------------|
|--2-44-2-44-5-77-3-55---2-44-2-44--7-6-2-4-----|
|--0-22-0-22-3-55--------0-22-0-22--5-4-0-2-----|
|-----------------------------------------------|

Riff 8
|------------|
|------------|
|------------|
|--7-6-2-4---|
|--5-4-0-2---|
|------------|
Tap to rate this tab
 
# A B C D E F G H I J K L M N O P Q R S T U V W X Y Z