Song name
# A B C D E F G H I J K L M N O P Q R S T U V W X Y Z

Birds Of Tokyo - Silhouettic tab

Song: Silhouettic
Band: Birds of Tokyo
Album: Universes
Tabber: Hogie - Corporate Takedown

Great song I woke up last night at 3 am with that solo stuck in my head and pick up the 
and played it craziest thing i have ever done
Have fun with that one


Solo

E|-------------------------|
B|-------------------------|
G|-5^-4-2-4-0-2------------|
D|--------------4----------|
A|-------------------------|
E|-------------------------|

E|-------------------------|
B|-------------------------|
G|-5^-4-2-4-0-2------------|
D|--------------4----------|
A|-------------------------|
E|-------------------------|

E|--------------------------------|
B|--------------------------------|
G|--------------------------------|
D|-10h12 10h12-10h12-9-7-9-5-7-4--|
A|--------------------------------|
E|--------------------------------|

E|--------------------------------|
B|--------------------------------|
G|--------------------------------|
D|-10h12 10h12-10h12-9-7-9-5-7-4--|
A|--------------------------------|
E|--------------------------------|
Tap to rate this tab
# A B C D E F G H I J K L M N O P Q R S T U V W X Y Z