Song name
# A B C D E F G H I J K L M N O P Q R S T U V W X Y Z

Birds Of Tokyo - Ode To Death tab

-----------------------------------------------------------------------------
			     ODE TO DEATH - Birds Of Tokyo
-----------------------------------------------------------------------------
Tabbed by: Refugeesus
Email: bxy959@hotmail.com or www.myspace.com/sinistertones

Tuning: Drop D

As with most of my tabs, there is room for improvement, for example; 
i'm not convinced about the last 2 chords in riff 3, 
but enjoy what's here :)

Intro
e|------------------------------------------------------------|
B|------------------------------------------------------------|
G|------------------------------------------------------------|
D|-7--7-7--7--7-7--7--7-7--8-8--7--7-7--7--7-7--7--7-7--10-10-|   x2
A|-7--7-7--7--7-7--7--7-7--8-8--7--7-7--7--7-7--7--7-7--10-10-|
D|-7--7-7--7--7-7--7--7-7--8-8--7--7-7--7--7-7--7--7-7--10-10-|

RIFF 1
e|-----------------------------|
B|-----------------------------|
G|-----------------------------|
D|-7--7-7--7--7-7--7--7-7--8-8-|
A|-7--7-7--7--7-7--7--7-7--8-8-|
D|-7--7-7--7--7-7--7--7-7--8-8-|

RIFF 2
e|----------------------------------------------------|
B|----------------------------------------------------|
G|----------------------------------------------------|
D|-0--0-0--0--0-0--0--0-0--7--7-7--7--7-7--7--7-7-8-8-|
A|-0--0-0--0--0-0--0--0-0--7--7-7--7--7-7--7--7-7-8-8-|
D|-0--0-0--0--0-0--0--0-0--7--7-7--7--7-7--7--7-7-8-8-|

RIFF 3
e|-------------------------------------------------|
B|-------------------------------------------------|
G|-------------------------------------------------|
D|-3-3-3-3-7-7-7-7-3-3-3-3-7-7-9-9-3-3-3-3-2-2-5-5-|
A|-3-3-3-3-7-7-7-7-3-3-3-3-7-7-9-9-3-3-3-3-2-2-5-5-|
D|-3-3-3-3-7-7-7-7-3-3-3-3-7-7-9-9-3-3-3-3-2-2-5-5-|

 |Tell me, how far would you go?               |
 |Would you you take the life of another?      | Play with Riff 1
 |Will you be the one to say no?               |
 |Forgive and forget when you die my love      |

 |Never will i see the sun again               | Play with Riff 2

 |Leave it, just leave it alone                |
 |You're picking the scab off another          | Play with Riff 1
 |We dig in the dirt to expose                 |
 |The answers to all that we do not know       |


 |Never will i see the sun again               | Play with Riff 2
 |Never will i see the sun again               |

 |Where were you monday?                       | Play with Riff 3
 |I was not missing i was dead                 |

 |It's simple, believe it or not               |
 |It's easy to play out the ignorant           |
 |The fever that burns in us all               | Play with Riff 1
 |The price that you pay when you die my love  |

 |Never will i see the sun again               | Play with Riff 2
 |Never will i see the sun again               |

 |Where were you Monday?                       | Play with Riff 3
 |I was not missing i was dead                 |

 |Never will i see the sun again               | Play with Riff 2
 |Never will i see the sun again               |

 |Where were you Monday?                       | Play with Riff 3
 |I was not missing i was dead                 |

 |You know i killed them all                   | Play with Riff 1

=============================================================================
Tap to rate this tab
# A B C D E F G H I J K L M N O P Q R S T U V W X Y Z