Song name
# A B C D E F G H I J K L M N O P Q R S T U V W X Y Z

Birds Of Tokyo - Silhouettic tab

Hey, I saw the other Tab and have to say it's not quite right. It sounds but it isnt. 
are the right tabs:

Tuning: EADGBE

Intro:

------------------------------------------------------10-10-10-----|
------------------------------------------------------10-10-10-----|
-------------------------------------------------------------------|
--9-9-9-10-10-10-7-7-7-9-9-9-7-7-7--7------------------------------|
--7-7-7-7--7--7--7-7-7-7-7-7-9-9-10-10-9-9-9-10-10-10--------------|
---------------------------------------7-7-7-7--7--7--10-10-10-----|


Verse:

-----0-0-------3--|
-1---0-0-------3--|
-0---0-0----------|
-2---2-2---4-4----|
-3---2-2---2------|
-3---0-0-----2-3--|


PreChorus:
--0------------------0-------|
--0------------------1-------|
--2------------------0-------|
--2------------------2-------|
--0------------------3-------|
--0------------------3-------|


Chorus:
--0---------3----------------|
--0---------3----------------|
--0--------------------------|
--2-----4-4------------------|
--2-----2--------------------|
--0-------2-3----------------|

and so on...
Tap to rate this tab
# A B C D E F G H I J K L M N O P Q R S T U V W X Y Z