Song name
# A B C D E F G H I J K L M N O P Q R S T U V W X Y Z

Birdy - People Help The People tab

Hello guys, this is my first tab so leave a comment if something is wrong. ;)

Birdy (Cherry Ghost)
People Help The People
My fingerstyle arrangement: http://youtu.be/GaZ7hlSNZ1I

Tuning: Standard
Capo 6
************************






Verse:

E|--0----------------------------------------------------------0----------------------| X2
B|--1--------------------0---0---0----0--3----3----3----3------1----------------------|
G|--0-----0---0---0--2---0-0---0----0----2----2----2----2------0-----0---0---0--------|
D|--2---2---2---2---------------------------4----4----4-----4--2---2---2---2---2------|
A|--3--------------------2-------------------------------------3----------------------|
E|------------------------------------------------------------------------------------|


Chorus:

E|------0-------------0----------------------------0-----------------0--------------0----------|
B|--3-------------3------------0---3------3--3--3--1-------------3--------------3------------0-|
G|--0-----0----0--0-----0--0-0-----2------2--2--2--0-----0-------0-----0-----0--0----0--0-0----|
D|-----------2------------------------4----4--4----2--2-----2--------------2-------------------|
A|--3-------------3--------------------------------3-------------3--------------3--------------|
E|---------------------------------------------------------------------------------------------|


E|--------------0-----3--0-------0----3--0-------0-0------3--0---0--2---0--|
B|--3--3------3---3---0--1-----3---3--0--1-----3-----3-3--0--1---1--4---1--|
G|--2----2--2---------0--0---2--------0--0---2------------0--0---2--4---0--|
D|--0-----------------0--2------------0--0----------------0--2---2--4---2--|
A|--------------------2--3------------2--3----------------2--3---0--2---3--|
E|-------------------------------------------------------------------------|


Verse:

E|--0----------------------------------------------------------0----------------------| X2
B|--1--------------------0---0---0----0--3----3----3----3------1----------------------|
G|--0-----0---0---0--2---0-0---0----0----2----2----2----2------0-----0---0---0--------|
D|--2---2---2---2---------------------------4----4----4-----4--2---2---2---2---2------|
A|--3--------------------2-------------------------------------3----------------------|
E|------------------------------------------------------------------------------------|


Chorus:


E|------0-------------0----------------------------0-----------------0--------------0----------|
B|--3-------------3------------0---3------3--3--3--1-------------3--------------3------------0-|
G|--0-----0----0--0-----0--0-0-----2------2--2--2--0-----0-------0-----0-----0--0----0--0-0----|
D|-----------2------------------------4----4--4----2--2-----2--------------2-------------------|
A|--3-------------3--------------------------------3-------------3--------------3--------------|
E|---------------------------------------------------------------------------------------------|


E|--------------0-----3--0-------0----3--0-------0-0------3--0---0--2--|
B|--3--3------3---3---0--1-----3---3--0--1-----3-----3-3--0--1---1--4--|
G|--2----2--2---------0--0---2--------0--0---2------------0--0---2--4--|
D|--0-----------------0--2------------0--0----------------0--2---2--4--|
A|--------------------2--3------------2--3----------------2--3---0--2--|
E|---------------------------------------------------------------------|

ect.
Tap to rate this tab
# A B C D E F G H I J K L M N O P Q R S T U V W X Y Z