Song name
# A B C D E F G H I J K L M N O P Q R S T U V W X Y Z

Birdy - Words As Weapons tab

INTRO/VERSE
e|--------------------------------------------------------------------------------|
B|---3-----3---3-----3---3-----3---3---3------3-----3---3-----3---3-----3---3---3-|
G|--------------------------------------------------------------------------------|
D|-----0---------0---------0--------------------4---------4---------4-----5---4---|
A|-2-----2---2-----2---2-----2---2---0------5-----5---5-----5---5-----5-----------|
E|--------------------------------------------------------------------------------|

e|--------------------------------------------------------------------------------|
B|---3-----3---3-----3---3-----3---3---3------3-----3---3-----3---3-----3---3---3-|
G|--------------------------------------------------------------------------------|
D|-----0---------0---------0--------------------4---------4---------4-------------|
A|-2-----2---2-----2---2-----2---0---4------5-----5---5-----5---5-----5---5---4---|
E|--------------------------------------------------------------------------------|

CHORUS
"You use your words..."
"But your blades..."
e|--------------------------------------------------------------------------------|
B|---3-----3---3-----3---3-----3---3---3------3-----3---3-----3---3-----3---3---3-|
G|--------------------------------------------------------------------------------|
D|-----0---------0---------0--------------------0---------0---------0-------------|
A|-----------------------------------0------2-----2---2-----2---2-----2---2---0---|
E|-3-----3---3-----3---3-----3---3------------------------------------------------| [x2]

"You think that..."
e|--------------------------------------------------------------------------------|
B|---3-----3---3-----3---3-----3---3---3------3-----3---3-----3---3-----3---3---3-|
G|--------------------------------------------------------------------------------|
D|-----4---------4---------4-----5---4----------0---------0---------0-------------| 
A|-5-----5---5-----5---5-----5--------------2-----2---2-----2---2-----2---0---4---|
E|--------------------------------------------------------------------------------|

"If you use..."
e|--------------------------------------------------------------------------------|
B|---3-----3---3-----3---3-----3---3---3------3-----3---3-----3---3-----3---3---3-|
G|--------------------------------------------------------------------------------|
D|-----0---------0---------0--------------------0---------0---------0-------------|
A|-----------------------------------0------2-----2---2-----2---2-----2---2---0---|
E|-3-----3---3-----3---3-----3---3------------------------------------------------|

"...tears"
e|---------------------------------------|
B|---3-----3---3-----3---3-----3---3---3-|
G|---------------------------------------|
D|-----4---------4---------4-------------| 
A|-5-----5---5-----5---5-----5---5---4---|
E|---------------------------------------| [x2 for CHORUS 1]

Bm                                  D
I feel your knife as is goes right in
Bm                               D
Cut to my core but I'm not bleeding
Bm                                  D
All that you say trying to make me small
Bm                                       D
Well the bigger you get the harder you fall

G                               Bm
You use your words as a weapon dear
G                                            Bm
But your blades don't hurt when you have no fear
D                                  Bm
You think that you're deep under my skin
                                 G
You're trying to keep me suffering
                                 Bm
If you use your words as a weapon
                                 D
Then as a weapon, I'll shed no tears

D

Bm                              D
You have my heart but I lock it up
Bm                                  D
This burning flame has been burnt enough
Bm                                 D
My window's cracked, they can be replaced
Bm                                        D
But your arm will tire throwing stones my way

G                               Bm
You use your words as a weapon dear
G                                            Bm
But your blades don't hurt when you have no fear
D                                  Bm
You think that you're deep under my skin
                                 G
You're trying to keep me suffering
                                 Bm
If you use your words as a weapon
                                 D
Then as a weapon, I'll shed no tears

G Bm G Bm
D Bm G Bm
D

G                               Bm
You use your words as a weapon dear
G                                            Bm
But your blades don't hurt when you have no fear
D                                  Bm
You think that you're deep under my skin
                                 G
You're trying to keep me suffering
                                 Bm
If you use your words as a weapon
                                 D     
Then as a weapon, I'll shed no tears
Bm                D
   I'll shed no tears
Tap to rate this tab
 
# A B C D E F G H I J K L M N O P Q R S T U V W X Y Z