Song name
# A B C D E F G H I J K L M N O P Q R S T U V W X Y Z

Birthday Party - Jennifers Veil tab

This is a quick interpretation of a great song that I'll post because there isn't a tab 
it anywhere on the net (that i can find)

Tuning: Half Step Up (F A# D# G# C F)

Harmonics/Intro:
I think Rowland's style can be replicated quite well with
1) Fair bit of reverb
2) Tremolo Bar
3) By watching http://www.youtube.com/watch?v=Si85s8dvKWI

Harmonics Part:Natural Harmonics with T-Bar=~, Normal Notes everything else)
  (0:23)
e--0-----19~-----------12~------------------------0--------19~----------12~-|
B----19~---------------12~----------------------------19~--19~-----12~------|
G--------------12~-----12~----------------12~--------------19~--------------|
D----------------------12~---------------------------------19~--------------|
A----------------------12~---------------------------------19~--------------|
E----------------------12~--------12~----------------------19~--------------|
     (1:00)
e-----19~---12~--------------------------------------------------------------|
B-19~-------12~--------------------------------------------------------------|
G-----------12~--------------------------------------------------------------|
D-----------12~--------------------------------------------------------------|
A----------------------------------------------------------------------------|
E----------------------------------------------------------------------------|

Chorus:
(So Dont Try to reach out etc.)
Em Cmaj Dmaj Bmin
Em Cmaj Dmaj xxx121010

Bridge:
Tap to rate this tab
 
# A B C D E F G H I J K L M N O P Q R S T U V W X Y Z