Song name
# A B C D E F G H I J K L M N O P Q R S T U V W X Y Z

Bison Bc - Two Day Booze tab

D  -----------------------------------|
A  -----------------------------------|
F  -10-0-0-9-0-0-7-0-0----------------|
C  -------------------0-8-0-0-7---8---| 3x
G  -----------------------------------|
D  -----------------------------------|

D  --------------------|
A  --------------------|
F  -10-9-7-------------|
C  --------------------|
G  --------7-9-4-4-----|
D  --------5-7-2-2-----|

D  ------------------------------|
A  ------------------------------|
F  ------------------------------|
C  -4-4-4-4-4-4-4-3--3--5--5-----|
G  ---------------------3--3-----|
D  -2-2-2-2-2-2-2-1--1-----------|

D  ------------------------------|
A  -------10-9-7-9--7------------|
F  -------------------8-78--7----|
C  ---------------------------8--| 3x
G  -7--7-------------------------|
D  -0--0-------------------------|

D  ------------------------------|
A  -------10-9-7-------10-9-7----|
F  ------------------------------|
C  ------------------------------|
G  -5--5---------3--3------------|
D  -3--3---------1--1------------|

D  ------------------------------|
A  -------10-9-7-9--7------------|
F  -------------------8-78--7----|
C  ---------------------------8--| 3x
G  -7--7-------------------------|
D  -0--0-------------------------|

D  ------------------------------|
A  -------10-9-7-------10--------|
F  ------------------------------|
C  ------------------------------|
G  -5--5---------3--3------------|
D  -3--3---------1--1------------|


And that's all I've got so far :P
Tap to rate this tab
# A B C D E F G H I J K L M N O P Q R S T U V W X Y Z