Song name
# A B C D E F G H I J K L M N O P Q R S T U V W X Y Z

Bison - Switzerland tab

Intro
e|--12---12--11----------------------------|
B|---------------14--12--14---12------12---|
G|--------------------------------13-------|
D|-----------------------------------------|
A|-----------------------------------------|
E|-----------------------------------------|
We tried to sleep up in the banks of snow 
e|-----------------------------------------|
B|-----------12----------------------------|
G|--13---13------13--11--13---11-----------|
D|-------------------------------14--------|
A|-----------------------------------------|
E|-----------------------------------------|
But soon discovered it was far too cold 
e|--12---12--11----------------------------|
B|---------------14--12--14---12------12---|
G|--------------------------------13-------|
D|-----------------------------------------|
A|-----------------------------------------|
E|-----------------------------------------|
So we then retreated into town 
e|-----------------------------------------|
B|-----------12----------------------------|
G|--13---13------13--11--13---11-----------|
D|-------------------------------14--------|
A|-----------------------------------------|
To find a place where there was level ground 


A
Oh 

E
Call home 

A
Oh oh Switzerland 

                                 E                         B
You've taken way my breath now once again 
      
                                 A            
You've left me with a sense of compassion 

             E
For the ones who 

B                                                  A
Cant pick them selves up off the ground 

A
Oh Switzerland 

                             E                   B
I never thought id have you as a friend 

                            A
I'm praying it was not at all pretend 

                 E
I need you now 

B                                                 A
To help pick me up from off the ground 



e|--12---12--11----------------------------|
B|---------------14--12--14---12------12---|
G|--------------------------------13-------|
D|-----------------------------------------|
A|-----------------------------------------|
E|-----------------------------------------|
Our drinks were hardly worth the price we paid 
e|-----------------------------------------|
B|-----------12----------------------------|
G|--13---13------13--11--13---11-----------|
D|-------------------------------14--------|
A|-----------------------------------------|
E|-----------------------------------------|
But we thanked God for them anyways and 
e|--12---12--11----------------------------|
B|---------------14--12--14---12------12---|
G|--------------------------------13-------|
D|-----------------------------------------|
A|-----------------------------------------|
E|-----------------------------------------|
With five minutes left we broke our backs 
e|-----------------------------------------|
B|-----------12----------------------------|
G|--13---13------13--11--13---11-----------|
D|-------------------------------14--------|
A|-----------------------------------------|
To spend more money than either of us had 


A
Oh 

E
Call home
Tap to rate this tab
# A B C D E F G H I J K L M N O P Q R S T U V W X Y Z