Song name
# A B C D E F G H I J K L M N O P Q R S T U V W X Y Z

Bitch Alert - Heroine tab

Song: Heroine
Artist: From First to Last
Album: Heroine
Tuning: Drop C


Intro (after Bass)

Guitar I:				 7x
|------------------------------------------|---------------------------|
|--------151515--------151515----15----15--|----333-----333-----33-----|
|------------------------------------------|---------------------------|
|-121212--------121212--------12----12-----|---------------------------|
|------------------------------------------|--------222-----222----22--|
|------------------------------------------|--------222-----222----22--|
   (Real Hard to Hear)                              PM|     ---    --
Guitar II
|----------------------------------------------------------------------|
|-8888888888888888-7777777777777777-8888888888888888-7777777777777777--|
|-7777777777777777-6666666666666666-7777777777777777-6666666666666666--|
|-5555555555555555-4444444444444444-5555555555555555-4444444444444444--|
|----------------------------------------------------------------------|
|----------------------------------------------------------------------|

|---------------------------------------------------|
|-13-------12-------13------------------------------|
|-12-(16x)-11-(16x)-12-(16x)------------------------|
|-10-------9--------10-------444-----444-----444----|
|--------------------------------222-----222-----22-|
|--------------------------------222-----222-----22-|
                                 PM|     ---     --

Verse: 2x
Guitar I			4x				2x	
|------------------------------------|-----------------------------|
|-1515151515151515-1414141414141414--|-333-----333-----33----------|
|-x-x-x-x-x-x-x-x--x-x-x-x-x-x-x-x---|-----------------------------|
|-1212121212121212-1111111111111111--|-----------------------------|
|------------------------------------|-----222-----222----22-------|
|------------------------------------|-----222-----222----22-------|
                                           PM|     ---    --

Guitar II    			4x				2x
|------------------------------------|-----------------------------|
|-1515151515151515-1414141414141414--|-----------------------------|
|-x-x-x-x-x-x-x-x--x-x-x-x-x-x-x-x---|-444-----444-----44----------|
|-1212121212121212-1111111111111111--|-----------------------------|
|------------------------------------|-----222-----222----22-------|
|------------------------------------|-----222-----222----22-------|
                                           PM|     ---    --

Chorus:
Guitar I: 4x
|---------------------------------------------------------------------------------------|
|--------151515--------151515----15----15-------151515--------151515--------------------|
|--------------------------------------------------------------------8b9d8--------------|
|-121212--------121212--------12----12----121212-------121212--------------6b-----------|
|--------------------------------------------------------------------(only 1st time)----|
|---------------------------------------------------------------------------------------|

Guitar II
|--------------------------------------------------------------------------------------|
|--------------------------------------------------------------------------------------|
|--------------------------------------------------------------------------------------|
|-5555555555555555-4444444444444444-5555555555555555-4444444444444444-5555555555555555-|
|-5555555555555555-4444444444444444-5555555555555555-4444444444444444-5555555555555555-|
|-5555555555555555-4444444444444444-5555555555555555-4444444444444444-5555555555555555-|

|-----------------------------------------------------------------|
|-----------------------------------------------------------------|
|-----------------------------------------------------------------|
|-2222222222222222-3333333333333333-1111111111111111--------------|
|-2222222222222222-3333333333333333-1111111111111111--------------|
|-2222222222222222-3333333333333333-1111111111111111--------------|






Post-Chorus
Guitar I:  4x
|-------------------------------------------------------------------------------------------|
|-------------------------------------------------------------------------------55-44-55-77-|
|-----444-55-44-22-44-00----------------------------444-55-44-22-44-00----------------------|
|-222--------------------44-22-44--22-11-22-44--222--------------------44-22-44-------------|
|-------------------------------------------------------------------------------------------|
|-------------------------------------------------------------------------------------------|

Guitar II:  4x
|-----------------------------------------------------------------|
|-----------------------------------------------------------------|
|-----------------------------------------------------------------|
|-2----------2-----------2----------2--------------2--------------|
|-2--------2-2--------2222--------2-2--------2222222--------------|
|-2--------2-2--------2222--------2-2--------2222222--------------|
          PM|         ---         -          ------
Repeat Chorus

Outro:
Guitar I
|-----------------------------------------------------------------|
|-----------------------------------------------------------------|
|-7bv~~~~~~~~~~~~~~~~~~~~~~~~~~~~---------------------------------|
|-----------------------------------------------------------------|
|-----------------------------------------------------------------|
|-----------------------------------------------------------------|

Guitar II:
|-------------------------------------------------------------------------|
|-------------------------------------------------------------------------|
|-------------------------------------------------------------------------|
|-1---1---1-1-1---1---1---1--1-1-1---1---1---1-1-1---1---1---1--1-1-1-0~--|
|-1---1---1-1-1---1---1---1--1-1-1---1---1---1-1-1---1---1---1--1-1-1-0~--|
|-1---1---1-1-1---1---1---1--1-1-1---1---1---1-1-1---1---1---1--1-1-1-0~--|

Then,

Riff 1:
|-----2--------2--------------------------------------------------|
|---0--------3----------------------------------------------------|
|-----------------------(Play over and over again till end)-------|
|-2--------2------------------------------------------------------|
|-----------------------------------------------------------------|
|-----------------------------------------------------------------|

Riff 2:
|-------18-19-18-------------18-19-18-----------------------------|
|----17----------17-------17----------17--------------------------|
|-15----------------17-15----------------17-----------------------|
|-----------------------------------------------------------------|
|-----(very faint)------------------------------------------------|
|-----------------------------------------------------------------|


There you go. Even though it's the longest song, there's not that much to it.

*Please Rate*
Tap to rate this tab
# A B C D E F G H I J K L M N O P Q R S T U V W X Y Z