Song name
# A B C D E F G H I J K L M N O P Q R S T U V W X Y Z

Bitch Alert - Late Night Lullaby tab

.-------------------------------------------.
| Artist        : Bitch Alert               |
| Album         : Kill Your darlings        |
| Track         : Late Night Lullaby        |
|-------------------------------------------|
| Tabbed by     : Ricky Thomson             |
| Date          : Thu 12th April 2012       |
| Contact Email : punkalert@gmail.com       |
`-------------------------------------------'

This should be close enough to the way heine plays it, sounds
perfect enough for me. If you find anything wrong with the tab send me
an email, cheers! (ps, this is the first tab i have ever written!)


Tuning: standard

/ = slide up
\ = slide down
b = bend
~ = vibrato


[riff one]

e|---7--7--4--5--45----7--7--4--5--45----7--7--4--5--45----7--7--4--5--45-|
B|-55-55-55-55-55----55-55-55-55-55----55-55-55-55-55----55-55-55-55-55---|
G|------------------------------------------------------------------------|
D|------------------------------------------------------------------------|
A|------------------------------------------------------------------------|
E|------------------------------------------------------------------------|


[chorus]

e|------------------------------------------------------------------------|
B|------------------------------------------------------------------------|
G|-----------------------------------44---------------44------------------|
D|-66-222--22-222---77-222--22-222---44-222--22-222---44-222---2222222----|
A|-66-222--22-222---77-222--22-222---22-222--22-222---22-222---2222222----|
E|-44-000--00-000---55-000--00-000------000--00-000------000---0000000----|


[verse]

e|-------------------------------------------------------------------|
B|-------------------------------------------------------------------|
G|-------------------------------------------------------------------|
D|-222--22-22-222---444--44-44-444---666--66-66-666---777--77-77-777-|
A|-222--22-22-222---444--44-44-444---666--66-66-666---777--77-77-777-|
E|-000--00-00-000---222--22-22-222---444--44-44-444---555--55-55-555-|

e|----------------------------------------------------|
B|----------------------------------------------------|
G|----------------------------------------------------|
D|-999--99-99-999---11-11-11---11-11--11-11--11-11-11-|
A|-999--99-99-999---11-11-11---11-11--11-11--11-11-11-|
E|-777--77-77-777---9--9--9----9--9---9--9---9--9--9--|

e|--------------------------------------------------------------------------|
B|--------------------------------------------------------------------------|
G|--------------------------------------------------------------------------|
D|-13-13-13---13-13--13-13--13-13-13---14-14-14---14-14--14-14---14-14-14---|
A|-13-13-13---13-13--13-13--13-13-13---14-14-14---14-14--14-14---14-14-14---|
E|-11-11-11---11-11--11-11--11-11-11---12-12-12---12-12--12-12---12-12-12---|


[solo]

e|-12----7/9-9b~----9\4-4-4--4/7--0-0---0000----12----7/9-9b~----9\4-4-4--4/7--0-0-|
B|---------------------------------------------------------------------------------|
G|---------------------------------------------------------------------------------|
D|---------------------------------------------------------------------------------|
A|---------------------------------------------------------------------------------|
E|---------------------------------------------------------------------------------|


[riff two]
(same as the 1st riff, last part is slightly different.)

e|---7--7--4--5--45----7--7--4--5--45----7--7--4--5--45----7--7--4---5/12-12-12--|
B|-55-55-55-55-55----55-55-55-55-55----55-55-55-55-55----55-55-55-55-------------| 
G|-------------------------------------------------------------------------------| 
D|-------------------------------------------------------------------------------| 
A|-------------------------------------------------------------------------------| 
E|-------------------------------------------------------------------------------| 


Order:
 - riff one
 - chorus
 - verse
 - chorus [x2]
 - verse
 - chorus [x2]
 - riff one [x2]
 - solo
 - chorus [x2]
 - riff two [x2]
 - riff one


After the last riff, the song ends on this note:
e|--0-|
B|----|
G|----|
D|----|
A|----|
E|----|


Have fun playing it :-)
Tap to rate this tab
# A B C D E F G H I J K L M N O P Q R S T U V W X Y Z