Song name
# A B C D E F G H I J K L M N O P Q R S T U V W X Y Z

Bitch Alert - God Doesnt Like Me tab

.-------------------------------------------.
| Artist        : Bitch Alert               |
| Album         : ..riot                    |
| Track         : God Doesn't Like Me       |
|-------------------------------------------|
| Tabbed by     : Ricky Thomson             |
| Date          : Thu 16th April 2012       |
| Contact Email : punkalert@gmail.com       |
`-------------------------------------------'

If you find anything wrong with the tab send me an email, cheers!
I'm not too sure about the second guitar part which comes in
towards the end of the song, if i find out later i'll put it up here.

Tuning: standard

/ = slide up
\ = slide down

[riff]

e|---------------------------------------------------------------------------------|
B|---------------------------------------------------------------------------------|
G|---------------------------------------------------------------------------------|
D|--9-9-9-------------------------------------9-9-9--------------------------------|
A|--------7------------9-9-9-7-7--------------------7------------9-9-9-7-7---------|
E|----------00-0-00--------------0-0-0-0--------------00-0-00-----------------0-0--|


[chords]

e|-----------------------------------------------------------------|
B|-----------------------------------------------------------------|
G|--9--9--9-99-99\5--5--5-55-55/7--7--7-77-77/9--9--9999--5559-9---|
D|--9--9--9-99-99\5--5--5-55-55/7--7--7-77-77/9--9--9999--3337-7---|
A|--7--7--7-77-77\3--3--3-33-33/5--5--5-55-55/7--7--7777--3337-7---|
E|-----------------------------------------------------------------|


Order:
 - riff [x2]
 - chords [x2]
 - riff [x2]
 - chords [x6]
 - riff [x2]



Throw in a few bends near the end of last riff,
Then the track finishes on this:
e|----------------------|
B|----------------------|
G|----------------------|
D|--9-9-9---------------|
A|--------7-------------|
E|----------00-0--------|


Enjoy :-)
Tap to rate this tab
# A B C D E F G H I J K L M N O P Q R S T U V W X Y Z