Song name
# A B C D E F G H I J K L M N O P Q R S T U V W X Y Z

Bitch Alert - Dope Sick Girl tab

.-------------------------------------------.
| Artist        : Bitch Alert               |
| Album         : ..riot                    |
| Track         : Dope Sick girl            |
|-------------------------------------------|
| Tabbed by     : Ricky Thomson             |
| Date          : Thu 18th April 2012       |
| Contact Email : punkalert@gmail.com       |
`-------------------------------------------'

If you find anything wrong with the tab send me an email, cheers!
This is one of my favourite records by Bitch Alert, had to tab it
as the original one on here didn't sound quite right to me.

Tuning: standard


[riff]

e||---------------------------------------------------------------------||
B||---------------------------------------------------------------------||
G||---------------------------------------------------------------------||
D||---------------------------------------------------------------------||
A||------4-------4-------4---5-5-4---------4-------4-------4---2-2-4-0--||
E||--5-5---5---5---5-5-5---5-------5---2-2---2---2---2-2-2---2----------||


[chorus]

e||--------------------------||
B||--------------------------||
G||--444-444-44--------------||
D||--444-444-44--222-222-22--||
A||--222-222-22--222-222-22--||
E||--------------000-000-00--||


[bridge]

e||------------------------------------------------||
B||------------------------------------------------||
G||------------------------------------------------||
D||--777-777-77-777-777-77--444-444-44-444-444-44--||
A||--777-777-77-777-777-77--444-444-44-444-444-44--||
E||--555-555-55-555-555-55--222-222-22-222-222-22--||



Order:
 - riff [x6]
 - chorus [x4]
 - riff [x6]
 - chorus [x4]
 - bridge [x2]
 - chorus [x4]
 - riff [x2]


After the final riff, play one extra note:

e|---------|
B|---------|
G|---------|
D|---------|
A|--0------|
E|---------|


Have fun :-)
Tap to rate this tab
 
# A B C D E F G H I J K L M N O P Q R S T U V W X Y Z