Song name
# A B C D E F G H I J K L M N O P Q R S T U V W X Y Z

Bitch Alert - In The School tab

.-------------------------------------------.
| Artist        : Bitch Alert               |
| Album         : Pay For Orgasm            |
| Track         : In The School             |
|-------------------------------------------|
| Tabbed by     : Ricky Thomson             |
| Date          : Thu 17th April 2012       |
| Contact Email : punkalert@gmail.com       |
`-------------------------------------------'

Awesome record, very easy to play.

Tuning: standard


[intro]

e|--------------------------|
B|--------------------------|
G|--0-----------------------|
D|--0-----------------------|
A|--0-----------------------|
E|--0-----------------------|


[bridge]

e|--------------------------|
B|--------------------------|
G|--8-8-888-88-8-------000--|
D|--6-6-666-66-6-888-7-000--|
A|--6-6-666-66-6-888-7-000--|
E|---------------666-5-000--|

[chords]

e|--------------------------|
B|--------------------------|
G|--8-8-888-88-8------------|
D|--6-6-666-66-6-888-7-777--|
A|--6-6-666-66-6-888-7-555--|
E|---------------666-5-555--|

Order:
 - intro
 - bridge [x4]
 - chords [x12]
 - bridge [x4]
 - chords [x16]
 - bridge [x4]


The song end's on this:
e|--------------------------|
B|--------------------------|
G|--8-----------8-----------|
D|--6-----------6-----------|
A|--6-----------6-----------|
E|--------------------------|


Enjoy :-)

Tap to rate this tab
# A B C D E F G H I J K L M N O P Q R S T U V W X Y Z