Song name
# A B C D E F G H I J K L M N O P Q R S T U V W X Y Z

Bitch Alert - Loveson tab

.-------------------------------------------.
| Artist        : Bitch Alert               |
| Album         : ..riot                    |
| Track         : Loveson                   |
|-------------------------------------------|
| Tabbed by     : Ricky Thomson             |
| Date          : Thu 31st May 2012         |
| Contact Email : punkalert@gmail.com       |
`-------------------------------------------'

Tuning: standard

b = bend 
/ = slide up


Order
 - verse  [x5]
 - bridge [x1]
 - chorus [x4]
 - verse  [x3]
 - bridge [x1]
 - chorus [x8]
 - verse  [x1]



[verse]

e||--------------------------------------------------||
B||---------------------5------------7----------9----||
G||--------6b---------6---6--------7--7--------9-9---||
D||------7---7------6------------------7------9---9--||
A||----7----------4------------5--------5----7-----7-||
E||--5-----------------------------------------------||


[bridge]

e|---------------------------------------------------------|
B|---------------------5------------7----------------------|
G|--------6b---------6---6--------7--7------9-9-9-9-9-9-9--|
D|------7---7------6------------------7-----9-9-9-9-9-9-9--|
A|----7----------4------------5--------5----7-7-7-7-7-7-7--|
E|--5------------------------------------------------------|



[chorus]

e||-----------------------------------------------------------||
B||-----------------------------------------------------------||
G||---------------6-6-6-6-6-6--7-7-7-7-7-7-7-7/9-9-9-9-9-9-9--||
D||--7-7-7-7-7-7--6-6-6-6-6-6--7-7-7-7-7-7-7-7/9-9-9-9-9-9-9--||
A||--7-7-7-7-7-7--4-4-4-4-4-4--5-5-5-5-5-5-5-5/7-7-7-7-7-7-7--||
E||--5-5-5-5-5-5----------------------------------------------||

Tap to rate this tab
# A B C D E F G H I J K L M N O P Q R S T U V W X Y Z