Song name
# A B C D E F G H I J K L M N O P Q R S T U V W X Y Z

Bitch Alert - Wheres My Happiness tab

--------------------------------------------------------------
Artist    :  Bitch Alert
Song      :  Where's My Happiness
Album     :  Pink Bunnies Get Hit By Big Trucks (Selected Shouts)
--------------------------------------------------------------
Tabbed By :  Ricky Thomson
Date      :  Sat 23rd June 2012
Contact   :  punkalert@gmail.com
--------------------------------------------------------------


If you want to play the original version of this song 
(from, 'kill your darlings') leave out the bends + palm mutes. 
Have fun!


Tuning: standard

b  = bend
pb = pre bend
/  = slide up
\  = slide down


[intro]
e|----------------------------------------------------------------------------|
B|--9--9--9--9-9-9-9-9/10--10-10-----------9--------10--10--10-10-------------|
G|-------------------------------8--8--8-8----9b-----------------8-8-8-8-8-8--|
D|----------------------------------------------------------------------------|
A|----------------------------------------------------------------------------|
E|----------------------------------------------------------------------------|


[verse]
e|----------------------------------------------------------------------------|
B|--9-9-9-9-9-9-9-9-9-9-9-9-9-9-9-10-10-10-10-10-10-10-10-10------------------|
G|-----------------------------------------------------------8-8-8-8-8-8-8-8--| [ x4] (palm muted)
D|----------------------------------------------------------------------------|
A|----------------------------------------------------------------------------|
E|----------------------------------------------------------------------------|

   
[chorus]
e|-----------------------------------|
B|-----------------------------------|
G|--6-x-6-x-6-x-6-x-6-x-6-x-6-x-6-x--|
D|--6-x-6-x-6-x-6-x-6-x-6-x-6-x-6-x--| [ x7]
A|--4-x-4-x-4-x-4-x-4-x-4-x-4-x-4-x--|
E|-----------------------------------|


[solo]
e|----------------------------------------------------------------|
B|--4/9---9--9--9--9-9-9-9/10-10-10-10-10-10-10-10b-10pb-10pb-10--|
G|----------------------------------------------------------------|
D|----------------------------------------------------------------|
A|----------------------------------------------------------------|
E|----------------------------------------------------------------|

  ----------------------------------------|
  --9b-9-------10--10--10-10--------------|
  -------9b------------------8-8-8-8-8-8--|
  ----------------------------------------|
  ----------------------------------------|
  ----------------------------------------|


[verse]
e|----------------------------------------------------------------------------|
B|--9-9-9-9-9-9-9-9-9-9-9-9-9-9-9-10-10-10-10-10-10-10-10-10------------------|
G|-----------------------------------------------------------8-8-8-8-8-8-8-8--| [ x4] (palm muted)
D|----------------------------------------------------------------------------|
A|----------------------------------------------------------------------------|
E|----------------------------------------------------------------------------|


[chorus]
e|-----------------------------------|
B|-----------------------------------|
G|--6-x-6-x-6-x-6-x-6-x-6-x-6-x-6-x--|
D|--6-x-6-x-6-x-6-x-6-x-6-x-6-x-6-x--| [ x7]
A|--4-x-4-x-4-x-4-x-4-x-4-x-4-x-4-x--|
E|-----------------------------------|


[bridge]
e|----------------------------------------------------|
B|----------------------------------------------------|
G|----------------------------------------------------|
D|--8-8-8-8-8-8-8-8-8-------8---8---8--8-8-8-8-8-8-8--|
A|--8-8-8-8-8-8-8-8-8-------8---8---8--8-8-8-8-8-8-8--|
E|--6-6-6-6-6-6-6-6-6-------6---6---6--6-6-6-6-6-6-6--|


e|--------------------------------------------------|
B|--------------------------------------------------|
G|--------------------------------------------------|
D|--8----8----8----8-8-8-8--6----6----6----6-6-6-6--|
A|--8----8----8----8-8-8-8--6----6----6----6-6-6-6--|  
E|--6----6----6----6-6-6-6--4----4----4----4-4-4-4--|    
                                                       [ x2]
  --------------------------------------------------|    
  --------------------------------------------------|   
  --------------------------------------------------|
  --4----4----4----4-4-4-4--6----6----6----6-6-6-6--|
  --4----4----4----4-4-4-4--6----6----6----6-6-6-6--|
  --2----2----2----2-2-2-2--4----4----4----4-4-4-4--|
  
  
[chorus]
e|-----------------------------------|
B|-----------------------------------|
G|--6-x-6-x-6-x-6-x-6-x-6-x-6-x-6-x--|
D|--6-x-6-x-6-x-6-x-6-x-6-x-6-x-6-x--| [ x7]
A|--4-x-4-x-4-x-4-x-4-x-4-x-4-x-4-x--|
E|-----------------------------------|


[end]
e|-----------------------------------|
B|-----------------------------------|
G|--6--------------------------------|
D|--6--------------------------------|
A|--4--------------------------------|
E|-----------------------------------|
Tap to rate this tab
# A B C D E F G H I J K L M N O P Q R S T U V W X Y Z