Song name
# A B C D E F G H I J K L M N O P Q R S T U V W X Y Z

Bitch Alert - Poing tab

-----------------------------------------------------------------
	Band: Bitch Alert - www.bitchalert.org
	Song: Poing (..rriot album)
-----------------------------------------------------------------

    Main riff	            Intro
 e||------------------------||--------------------------------------|
 H||------------------------||--------------------------------------|
 G||------------------------||--------------------------------------|
 D||----4------------4------||-4--4-4-6-888-11-8-6-4--6-4-----------|
 A||------2-4----------2-4--||-----------------------------6-44-4-4-|
 E||-2---------2-2-2--------||--------------------------------------|

  ----------------------------------------------------------------||
  ----------------------------------------------------------------||
  ----------------------------------------------------------------||
  ------4--4-4-6-4-6b-4--6b-4-6-4----4----------------------------||
  --6-6----------------------------6---6-4-6-4---4----------------||
  ---------------------------------------------6---6-4-6-4-2-4-2--||
  b = bend


  chorus

    E5    F#5    G#5    D#5      F#5    D#5    H5
 ||-----|---------------------------------------------------||
 ||-----|---------------------------------------------------||
 ||-----|---------------8-8888----------8-888--4-4444-------||
 ||--2--|-4-444--6-666--8-8888---4-444--8-888--4-4444---(4)-||
 ||--2--|-4-444--6-666--6-6666---4-444--6-666--2-2222---(4)-||
 ||--0--|-2-222--4-444-----------2-222------------------(2)-||
Tap to rate this tab
 
# A B C D E F G H I J K L M N O P Q R S T U V W X Y Z