Song name
# A B C D E F G H I J K L M N O P Q R S T U V W X Y Z

Bitch Alert - Sunsets You Know tab

-----------------------------------------------------------------
	Band: Bitch Alert - www.bitchalert.org
	Song: Sunsets you know (..rriot album)
-----------------------------------------------------------------



   Intro          on verse

      A5           F5  E5
 e||-------------|-----------||
 H||-------------|-----------||
 G||-------------|-----------||
 D||--7-7-7-7-7--|--3--2-----||
 A||--7-7-7-7-7--|--3--2-----||
 E||--5-5-5-5-5--|--1--0-----||


 chorus

     A5         E5  D#5      A5         C#5  C5
 ||--------------------------------------------------||
 ||--------------------------------------------------||
 ||-------------9-9-8-8-8-8-------------6-6-5-5-5-5--||
 ||--7-7-7-7-7--9-9-8-8-8-8--7-7-7-7-7--6-6-5-5-5-5--||
 ||--7-7-7-7-7--7-7-6-6-6-6--7-7-7-7-7--4-4-3-3-3-3--||
 ||--5-5-5-5-5---------------5-5-5-5-5---------------||


 bridge

     A5
 ||------------------------|| play A5 x2 then
 ||-------------*harmonic--|| A5 x2 with harmonic
 ||------------------------|| |
 ||--7-7-7-7-7-------------|| |
 ||--7-7-7-7-7-------------|| in the end play
 ||--5-5-5-5-5---5*-5*-5*--|| it backwards


 c-part  with clean sound

     A5       F5
 ||-----------------------||
 ||-----------------------||
 ||-----------------------||
 ||--7--7-7---3-3-3-3-----||
 ||--7--7-7---3-3-3-3-----||
 ||--5--5-5---1-1-1-1-----||


-----------------------------------------------------------------

x4  Intro
x12 Verse
x4  Chorus
x4  Bridge
x12 Verse
x4  Chorus
x12 C-part
x4  Chorus
x4  Bridge/Outro

Tap to rate this tab
# A B C D E F G H I J K L M N O P Q R S T U V W X Y Z