Song name
# A B C D E F G H I J K L M N O P Q R S T U V W X Y Z

Bitch Alert - Loveson tab

-----------------------------------------------------------------
	Band: Bitch Alert - www.bitchalert.org
	Song: Loveson (..rriot album)

 Notice that this is "..rriot" album version.
-----------------------------------------------------------------


 Intro & verse /clean sound

      A            C#m          D            E
 |e|--------------------------------2------------0----------||
 |H|-------2------------5-------------3------------0--------||
 |G|---------2------------6-------2-----2------------1------||
 |D|----2------------6----------0--------------2-------2----||
 |A|--0------------4-------------------------2--------------||
 |E|--------------------------------------------------------||

   On last time before chorus play *E5 after D-chord


 Chorus /dist.

     *E5    A5  C#5 D5  E5
 ||------------------------||
 ||------------------------||
 ||-(-9-)-------6---7---9--||
 ||-(-9-)---7---6---7---9--||
 ||-(-7-)---7---4---5---7--||
 ||---------5--------------||


-----------------------------------------------------------------

x2  Intro
x4  Verse
x4  Chorus
x4  Verse
x8  Chorus
x1  "Verse"
Tap to rate this tab
# A B C D E F G H I J K L M N O P Q R S T U V W X Y Z