Song name
# A B C D E F G H I J K L M N O P Q R S T U V W X Y Z

Bitch Alert - Kill You Boy tab

Kill You Boy - Bitch Alert

Verse
e|--------------------------------------------------|
b|--------------------------------------------------|
g|--------------------------------------------------|
d|--------------------------------------------------|
a|--------------4--4--4--4--5--5--5--5--------------|
E|--5--5--5--5--------------------------6--6--6--6--|

Chorus
e|--------------|
b|--------------|
g|--------------|
d|--7--8--7--5--|
a|--7--8--7--5--|
E|--5--6--5--3--|
Tap to rate this tab
 
# A B C D E F G H I J K L M N O P Q R S T U V W X Y Z