Guitaretab - guitar tabs
Song name
# A B C D E F G H I J K L M N O P Q R S T U V W X Y Z

Bitch And Animal - Guys Suck tab

Guys Suck - Bitch And Animal

You seemed so sweet to me
You were gentle towards me
Everything just seemed so nice
You seemed so sincere
I thought you cared for me
I thought I fell in love
But then I saw
And I realized

e|--------0--------0--------0--------1--------0--------3--------0--------1--------0--------3--------0--------1--------0--|
b|-----------------------------------------------------------------------------------------------------------------------|
g|--------------------------------2-----------------------------------2----------------------------------2---------------|
d|-----2--------2--------2-----3-----------2-----------------2-----3-----------2-----------------2-----3-----------2-----|
a|--3--------3--------3-----------------3-----------2-----3-----------------3-----------2-----3-----------------3--------|
E|-----------------------------------------------3-----------------------------------3-----------------------------------|

e|--------3-----------------------------------------------------------------------------------|
b|-----------3-----3-----3-----3-----1-----1-----1-----1--------------------------------------|
g|-----------------------------------------------------------0-----0-----0-----0-----0-----0--|
d|--------------3-----3-----3-----3-----3-----3-----3-----------0-----0-----0-----0-----0-----|
a|-----2--------------------------------------------------------------------------------------|
E|--3-----------------------------------------------------------------------------------------|

           C  F  C  G  C  F  C  G
Guys suck

C             F           C
You called us bitches and sluts

             G
Yet anything turns you on

C             F                        C  G
Why canít you think beyond your dicks?
[ Tab from: http://www.guitaretab.com/b/bitch-and-animal/74063.html ]
C                 F
Players should be castrated

C        G
Your ego has to die

C                F
You think youíre godís gift

     C     G
Yeah right

Bb           F               C
You actually think weíre all naive

Bb        F         C
Sometimes you donít explain

Bb           F
You met some other bitch

C
She went down on you

Bb          F
You fell in love

                 G
I guess that was enough


           C  F  C  G  C  F  C  G
Guys suck

C               F
You think weíre all confusing

C            G
But you once stayed with us

C       F     C     G
Why you be so tough

C           F
All of your macho ways

C       G
You are such a jerk

C         F             C    G
Just have fun with your porn

Bb    F                  C
Donít play your games on me

Bb     F            C
Try to fuck with my head

C            F            G
But you will get what you deserve

          C  F  C  G  C  F  C  G
Guys suck

C             F           C
You called us bitches and sluts

             G
Yet anything turns you on

C             F                        C  G
Why canít you think beyond your dicks?

C                 F
Players should be castrated

C        G
Your ego has to die

C                F
You think youíre godís gift

     C     G
Yeah right

Bb           F               C
You actually think weíre all naive

Bb        F         C
Sometimes you donít explain

Bb           F
You met some other bitch

C
She went down on you

Bb          F
You fell in love

                 G
I guess that was enough


           C  F  C  G
Guys suck

                    C  F  C  G
Ya fucking bastard

          C  F  C  G
Guys suck

          C  F  C  G
Guys suck

          C
Guys suck
Related for Guys Suck tab
Guys Suck chords by Bitch And Animal