Song name
# A B C D E F G H I J K L M N O P Q R S T U V W X Y Z

Bitch And Animal - Miss Me My Dear tab

Miss Me My Dear - Bitch And Animal

Part 1
 b|--------------------|
f#|--------------------|
 d|--------------------|
 a|--------------3-----|
 e|-----0--1--3--------|
 A|--3--------------3--|

Capo - 11

Part 2a
e|--2--5--2--0--3--3--3--|
b|--3--3--3--3--3--2--0--|
g|--2--2--2--2--0--0--0--|
d|--0--0--0--0--0--0--0--|
a|-----------------------|
E|-----------------------|

Part 2b
e|--0--3--0--3--3--|
b|--0--3--0--3--2--|
g|--0--0--0--0--0--|
d|--0--0--0--0--0--|
a|-----------------|
E|-----------------|

Part 2c
e|--0--3--0--3--3--3--3--|
b|--0--3--0--3--2--3--2--|
g|--0--0--0--0--0--0--0--|
d|--0--0--0--0--0--0--0--|
a|-----------------------|
E|-----------------------|
Tap to rate this tab
# A B C D E F G H I J K L M N O P Q R S T U V W X Y Z