Song name
# A B C D E F G H I J K L M N O P Q R S T U V W X Y Z

Bitchbusters - Dead Night tab

Bitchbusters - Dead Night
Length : 2.44
Dropped D, then Tuned Down A Half Step?

Riff 1
 |        3X        |      2X      |
E|------------------|--------------|
B|------------------|--------------|
G|------------------|--------------|
D|-0--3--5-5--5-5-5-|-7--5--3--0-0-|
A|-0--3--5-5--5-5-5-|-7--5--3--0-0-|
D|-0--3--5-5--5-5-5-|-7--5--3--0-0-|

Riff 2
E|----------------|
B|----------------|
G|----------------|
D|-0-0-3--0-0-3-5-|
A|-0-0-3--0-0-3-5-|
D|-0-0-3--0-0-3-5-|

Riff 3
E|-------|-------|--------|--------|
B|-------|-------|--------|--------|
G|-------|-------|--------|--------|
D|-3/7/9-|-9/7/3-|-3/9/12-|-12/9/3-|
A|-3/7/9-|-9/7/3-|-3/9/12-|-12/9/3-|
D|-3/7/9-|-9/7/3-|-3/9/12-|-12/9/3-|

During the second time riff 3 is played, this riff kicks in.
E|-3/7/9-|-9/7/3-|-3/9/12-|-12/9/3-|
B|-3/7/9-|-9/7/3-|-3/9/12-|-12/9/3-|
G|-------|-------|--------|--------|
D|-------|-------|--------|--------|
A|-------|-------|--------|--------|
D|-------|-------|--------|--------|

I downloaded some music from this fucking cool new band from the Netherlands. I really
needed to play it, but there was no tab. So here it is, to all you other Bitchbuster fans out there. 
Check out their homepage : www.bitchbusters.tk and www.cu2.nl/soberize for more information.
Tap to rate this tab
# A B C D E F G H I J K L M N O P Q R S T U V W X Y Z