Song name
# A B C D E F G H I J K L M N O P Q R S T U V W X Y Z

Biting Elbows - Bad Motherfucker tab

Here is the intro to this song, the harp sound that I did not find in other people's tabs.

e|-------10----------9--------5-7-5------5-7-5--------|
B|---7-10--10-7--7-10--10-7--7------7---7------7------|
G|6-7-----------7-----------4---------4----------4----|
D|----------------------------------------------------|
A|----------------------------------------------------|
E|----------------------------------------------------|

e|------3-----------3-----------5-----------7-5-3-----|
B|----3---3-------3---3-------5---5-------5-----------|
G|--4-------4---4-------4---6-------6---6-------------|
D|5-----------5-----------7-----------7---------------|
A|----------------------------------------------------|
E|----------------------------------------------------|

And here is the chorus, that I did not write myself so 
I don't know if its right or not.

e|--------------------------------------------------------------------|
B|--------------------------------------------------------------------|
G|------7-7-7-7-7----7----10-10-10-10--------------------5-5-5-5-5-5--|
D|------7-7-7-7-7----7----10-10-10-10-7-7--7--7--7---7---5-5-5-5-5-5--|
A|------5-5-5-5-5----5----8--8--8--8--7-7--7--7--7---7---3-3-3-3-3-3--|
E|------------------------------------5--5--5--5--5---5---------------|

Enjoy.
Tap to rate this tab
 
# A B C D E F G H I J K L M N O P Q R S T U V W X Y Z