Song name
# A B C D E F G H I J K L M N O P Q R S T U V W X Y Z

Bitter Alliance - Wither And Die tab

My Band's song Wither and Die

Tuning: Top string half step down

Intro

e|------------------------------------------------------------------------|
B|------------------------------------------------------------------------|
G|------------------------------------------------------------------------|
D|------------------------------------------------------------------------|
A|--00--53---00---65---0--3p--000-X3----------333333--5555--0--3p0--------|
E|--00--53---00---65---0--3p--000-------------333333--5555--0--3p0 -------|
                                                                        Then

Same again once Alex starts singing and drums kick in
e|------------------------------------------------------------------------|
B|------------------------------------------------------------------------|
G|------------------------------------------------------------------------|
D|------------------------------------------------------------------------|
A|--00--53---00---65---0--3p--000-X3----------333333--5555--0--3p0--------|
E|--00--53---00---65---0--3p--000-------------333333--5555--0--3p0 -------|

second part of verse
e|--------------------------------------------------------------------|
B|--------------------------------------------------------------------|
G|--------------------------------------------------------------------|
D|--------------------3-----------------------------------------------|
A|--------------3h5-5------------------333333---5555---0--3p0---------|
E|---------0000------------------------333333---5555---0--3p0---------|
                    XXXX             X3

e|-----------------------------------------------------------------|
B|-----------------------------------------------------------------|
G|-----------------------------------------------------------------|
D|----------------3----------------55--5/7\5-----22222222----------|
A|---------3h5-5-------------------33--3/5\3-----00000000----------|
E|----0000---------------------------------------------------------|
           XXXX                 X3 again


Chorus
e|-------------------------------------------------------|
B|-------------------------------------------------------|
G|-------------------------------------------------------|
D|----7X6---5--------------------------------------------|
A|----5-----3X6-----5X6-0--3p--0000000000----------------|
E|------------------5---0--3p---0000000000---------------|


back into verse
e|------------------------------------------------------------------------|
B|------------------------------------------------------------------------|
G|------------------------------------------------------------------------|
D|------------------------------------------------------------------------|
A|--00--53---00---65---0--3p--000-X3----------333333--5555--0--3p0--------|
E|--00--53---00---65---0--3p--000-------------333333--5555--0--3p0 -------|


e|--------------------------------------------------------------------|
B|--------------------------------------------------------------------|
G|--------------------------------------------------------------------|
D|--------------------3-----------------------------------------------|
A|--------------3h5-5------------------333333---5555---0--3p0---------|
E|---------0000------------------------333333---5555---0--3p0---------|
                    XXXX             X3

e|-----------------------------------------------------------------|
B|-----------------------------------------------------------------|
G|-----------------------------------------------------------------|
D|----------------3----------------55--5/7\5-----22222222----------|
A|---------3h5-5-------------------33--3/5\3-----00000000----------|
E|----0000---------------------------------------------------------|
           XXXX                 X3 again


Chorus X2 (but rhythm guitar only while lead plays solo)
e|-------------------------------------------------------|
B|-------------------------------------------------------|
G|-------------------------------------------------------|
D|----7X6---5--------------------------------------------|
A|----5-----3X6-----5X6-0--3p--0000000000----------------|
E|------------------5---0--3p---0000000000---------------|


e|------------------------------------------------------------------------|
B|------------------------------------------------------------------------|
G|------------------------------------------------------------------------|
D|------------------------------------------------------------------------|
A|--00--53---00---65---0--3p--000-X3----------333333--5555--0--3p0--------|
E|--00--53---00---65---0--3p--000-------------333333--5555--0--3p0 -------|


| /  slide up
| \  slide down
| h  hammer-on
| p  pull-off
| ~  vibrato
| +  harmonic
| x  Mute note
Tap to rate this tab
# A B C D E F G H I J K L M N O P Q R S T U V W X Y Z