Song name
# A B C D E F G H I J K L M N O P Q R S T U V W X Y Z

Bittersweet - Burn Berlin Down tab

LEAD TAB

intro/chorus(lead)
-------------------------------------------------------------------------|
-------------------------------------------------------------------------|
---95-1112-11-9--95------------------------------------------------------|
--9-------------9---975-99~----------------------------------------------|
7------------------------------------------------------------------------|
-------------------------------------------------------------------------|

rhythm use chord from another tab.

solo:
repeat 2x

-------------------------------------------------------------------|
5-5-5-5-54---------578-58------------------------------------------|
-4-4-4----5-5-5-5-4---4--454-454-----------------------------------|
-----------5-5-5-5----------7---75---------------------------------|
-------------------------------------------------------------------|
-------------------------------------------------------------------|
Tap to rate this tab
# A B C D E F G H I J K L M N O P Q R S T U V W X Y Z