Song name
# A B C D E F G H I J K L M N O P Q R S T U V W X Y Z

Bittersweet - Ceritera tab

Ceritera


Intro
                              D  E  D  E
e|----------------------------2--0--2--0~--|
B|----------------------------3--0--3--0~--|
G|-141414/131313/111111/999---2--1--2--1~--|
D|-xxxxxx/xxxxxx/xxxxxx/xxx---0--2--0--2~--|
A|-121212/111111/9-9-9-/777------2-----2~--|
E|-------------------------------0-----0~--|

A           C#m
Beginilah caranya
A              C#m              F#m
Dimana mereka melihat ia sempurna
F#m             C#m      F#m
Hanya ada putih dan hitam
F#m                     A
Tanpa dijelaskan mengapa
       e|------------------|
       B|------------------|
       G|-999/777/666/444--|
       D|-xxx/xxx/xxx/xxx--|
       A|-777/555/444/222--|
       E|------------------|


A             C#m
Bagaikan rabun warna
A                  C#m            F#m
Jika dipentaskan dunia memang ceria
F#m        C#m           F#m
Hanya ada putih dan hitam
F#m           E
Yang jelas nyata

    A        E        F#m
e|--5-5-5-5--7-7-7-7--2-2-2-2----|
B|--5-5-5-5--9-9-9-9--2-2-2-2----|
G|--6-6-6-6--9-9-9-9--2-2-2-2----|
D|--7-7-7-7--9-9-9-9--4-4-4-4----|
A|--7-7-7-7--7-7-7-7--4-4-4-4----|
E|--5-5-5-5-----------2-2-2-2----|

                              D  E  D  E
e|----------------------------2--0--2--0--|
B|----------------------------3--0--3--0--|
G|-141414/131313/111111/999---2--1--2--1--|
D|-xxxxxx/xxxxxx/xxxxxx/xxx---0--2--0--2--|
A|-121212/111111/9-9-9-/777------2-----2--|
E|-------------------------------0-----0--|

A             C#m
Begitu juga kita
A
Hanya menafikan
  C#m                    F#m
Melepaskan batuk di tangga
F#m             C#m         F#m
Tinggallah si putih dan hitam
F#m                       A
Bertengkar dan berebut harta
           e|------------------|
           B|------------------|
           G|-999/777/666/444--|
           D|-xxx/xxx/xxx/xxx--|
           A|-777/555/444/222--|
           E|------------------|

A            C#m
Biarkanlah mereka
A
Ada yang menyatakan
    C#m              F#m
begitulah lumrah dunia
F#m       C#m            F#m
Cuma ini lumrah terancang
F#m           E
Yang jelas nyata
E
Terpapar depan muka


Chorus

A              E                F#m
Dan pabila si kecil pun mula bertanya
    A        E        F#m
e|--5-5-5-5--7-7-7-7--2-2-2-2----|
B|--5-5-5-5--9-9-9-9--2-2-2-2----|
G|--6-6-6-6--9-9-9-9--2-2-2-2----|
D|--7-7-7-7--9-9-9-9--4-4-4-4----|
A|--7-7-7-7--7-7-7-7--4-4-4-4----|
E|--5-5-5-5-----------2-2-2-2----|

                          D
   Dari mana datangnya berita

e|---------------------------|
B|---------------------------|
G|-141414/131313/111111/999--|
D|-xxxxxx/xxxxxx/xxxxxx/xxx--|
A|-121212/111111/9-9-9-/777--|
E|---------------------------|

      E
Di mana
D           E
Datangnya sedar

Solo

A,C#m,A,C#m,F#m,C#m,F#m  e|------------------|
                         B|------------------|
                         G|-999/777/666/444--|
                         D|-xxx/xxx/xxx/xxx--|
                         A|-777/555/444/222--|
                         E|------------------|

    A        E        F#m
e|--5-5-5-5--7-7-7-7--2-2-2-2----|
B|--5-5-5-5--9-9-9-9--2-2-2-2----|
G|--6-6-6-6--9-9-9-9--2-2-2-2----|
D|--7-7-7-7--9-9-9-9--4-4-4-4----|
A|--7-7-7-7--7-7-7-7--4-4-4-4----|
E|--5-5-5-5-----------2-2-2-2----|

                              D  E  D
e|----------------------------2--0--2-|
B|----------------------------3--0--3-|
G|-141414/131313/111111/999---2--1--2-|
D|-xxxxxx/xxxxxx/xxxxxx/xxx---0--2--0-|
A|-121212/111111/9-9-9-/777------2----|
E|-------------------------------0----|


e|------------------------------------------|
B|------------------------------------------|
G|-999999999/1111111111111/13131313131313---|
D|-xxxxxxxxx/xxxxxxxxxxxxx/xxxxxxxxxxxxxx---|
A|-777777777/9-9-9-9-9-9-9/11111111111111---|
E|------------------------------------------|

Go to Chorus

Sorry guys coz solo x full

Anything ask me keiri85@gmail.com
Tap to rate this tab
 
# A B C D E F G H I J K L M N O P Q R S T U V W X Y Z