Song name
# A B C D E F G H I J K L M N O P Q R S T U V W X Y Z

Bitza - Vorbeste Vinul tab

(solo 2:44-3:06)

e|-------------|-99999999---7---5--4-5-4---4-|------------4----------|
B|-2/9----9----|-------------------------7---|---5--7--7-----7--5--4-|
G|-------------|-----------------------------|-----------------------|
D|-------------|-----------------------------|-----------------------|

e|-----------------------------------|
B|-22222222---5--9--7--7--9--7--5--4-|
G|-----------------------------------|
D|-----------------------------------|

e|-99999999---7---5--7~5~4-------------|
B|------------------------7~5~4--------|
G|-----------------------------6~4~6-6-|
D|-------------------------------------|


You have to listen to the song for accuracy (tempo). Enjoy! 
Feel free to contact me for any further modifications, 
although I think this is the real thing.
Tap to rate this tab
# A B C D E F G H I J K L M N O P Q R S T U V W X Y Z