Song name
# A B C D E F G H I J K L M N O P Q R S T U V W X Y Z

Biz Markie - Just A Friend tab

my first so please comment

E---12---12--------10--10*-|-------------10---8----10---11---8----10-----------|
B---13------15-13--10------|-------13----10---10---10---10---10---10-----------|
G---12-------------10------|----10-------10---10---10---10---10---10-----------|
D--------------------------|---------------------------------------------------|
A--------------------------|---------------------------------------------------|
E--------------------------|---------------------------------------------------|


(repeat 2x)
E-------------10---8----10---11---8----10---|
B-------13----10---10---10---10---10---10---|
G----10-------10---10---10---10---10---10---|
D-------------------------------------------|
A-------------------------------------------|
E-------------------------------------------|

*this part might sound a little awkward but it was the best i could do
E---15-----15----------------------------|
B---12-----12----------------------------|
G---16-----16----------------------------|
D----------------------------------------|
A----------------------------------------|
E----------------------------------------|

everything juts sorta repeat itself
Tap to rate this tab
# A B C D E F G H I J K L M N O P Q R S T U V W X Y Z