Song name
# A B C D E F G H I J K L M N O P Q R S T U V W X Y Z

Biz Markie - Just A Friend tab

e[-15-15-15-------------------------------------------------------------]
b[-13-13-13-17--17-15----15--------15-17-15-13-15--------15-17-15-13-15-]
g[----------17--------17-14--14-17-------------14--14-17-------------17-]
d[----------------------------------------------------------------------]
a[----------------------------------------------------------------------]
e[----------------------------------------------------------------------]


e[-15-15-15-------------------------------------------------------------]
b[-15-15-15-17--17-15----15--------15-17-15-13-15--------15-17-15-13-15-]
g[----------17--------17-14--14-17-------------14--14-17-------------17-]
d[----------------------------------------------------------------------]
a[----------------------------------------------------------------------]
e[----------------------------------------------------------------------]

BIZ MARKIE - JUST A FRIEND [OH BABY YOU!!] haha

such an easy song and its so funny too
Tap to rate this tab
# A B C D E F G H I J K L M N O P Q R S T U V W X Y Z