Song name
# A B C D E F G H I J K L M N O P Q R S T U V W X Y Z

Bjork Brant - Low Desert Punk tab

Brant Bjork - Low desert punk
From the album: Jalamanta
This is an awesome song anyone can play.
Tuning is a half step down

This is the basic riff

Eb----------------------------------------------------------------------------|
Bb----------------------------------------------------------------------------|
Gb----------------------------------------------------------------------------|
Db-9----9----9-9-9----9----9-9-9----9----9-9-9----9----9-9-9------------------|
Ab-7----7----7-7-7----7----7-7-7----7----7-7-7----7----7-7-7------12----12----|
Eb-0----0----0-0-0----0----0-0-0----0----0-0-0----0----0-0-0----7/10----10----|


You can also do stuff like (brant does these sometimes):


Eb----------------------------------------------------------------------------|
Bb----------------------------------------------------------------------------|
Gb----------------------------------------------------------------------------|
Db-9----9----x-x-9----9----x-x-9----9----x-x-9----9----x-x-9------------------|
Ab-7----7----x-x-7----7----x-x-7----7----x-x-7----7----x-x-7------12----12----|
Eb-0----0----x-x-0----0----x-x-0----0----x-x-0----0----x-x-0----7/10----10----|

Or:


Eb----------------------------------------------------------------------------|
Bb----------------------------------------------------------------------------|
Gb----------------------------------------------------------------------------|
Db-9----9----7-9-9----9----7-9-9----9----7-9-9----9----7-9-9------------------|
Ab-7----7----7-7-7----7----7-7-7----7----7-7-7----7----7-7-7------12----10----|
Eb-0----0----0-0-0----0----0-0-0----0----0-0-0----0----0-0-0----7/10----10----|

...And you can improvise endlessly on this riff.

Then comes this part after verses and before the first verse

Eb---------------------------------------------------------------------------------|
Bb---------------------------------------------------------------------------------|
Gb---------------------------------------------------------------------------------|
Db---------------------------------------------------------------------------------|
Ab-19---19---17h19-19---19---17h19-19---19---17h19-19---19---17h19-19---19---17----|
Eb--0----0----0--0--0----0----0--0--0----0----0--0--0----0----0--0--0----0----0----|

Break ("i'm gonna let the stars..."):

Eb------------------------------------------------------------------------------|
Bb------------------------------------------------------------------------------|
Gb------------------------------------------------------------------------------|
Db-9---------------------------9---9---------------------------------9----------|
Ab-7---------------------------7---7---------------------------------7----------|
Eb-0---------------------------0---0---------------------------------0----------|
      "im gonna let..."                  "...and i'm gonna be your slave"


And that's basically what you need to play the song.
Listen to the song and when you get the rythym (and the feeling:D),
you'll never get sick listening and playing it.
This is my first tab, and i'll make correcions for request.
Rock on!:P
Tap to rate this tab
# A B C D E F G H I J K L M N O P Q R S T U V W X Y Z