Song name
# A B C D E F G H I J K L M N O P Q R S T U V W X Y Z

Bjork Brant - Automatic Fantastic tab

Link: 

Intro/Chorus:
e---------------------------------------------------------------------------|
b---------------------------------------------------------------------------|
g---------------------------------------------------------------------------|
d------2---0h2-0----------------------------2---0h2-0-----------------------|
a----------------0-0~---0h2-0-------------------------0-0~---0h2-0----------|
e--0-0------------------------3-3~------0-0------------------------3-3~-----|

Verse:
e---------------------------------------------------------------------------|
b---------------------------------------------------------------------------|
g---------------------------------------------------------------------------|
d-----------------------------5------------------------------------5--------|
a--5-5-7~------5-5-7~---5-5-5---7~------5-5-7~------5-5-7~---5-5-5---7~-----|
e---------------------------------------------------------------------------|
Tap to rate this tab
# A B C D E F G H I J K L M N O P Q R S T U V W X Y Z