Song name
# A B C D E F G H I J K L M N O P Q R S T U V W X Y Z

Bjork Brant - Let The Truth Be Known tab

Artist : Brant Bjork and the Bros
Song : Let the truth be known


This is the main riff, it's played throughout most of the song

E|----------------||----------------|
B|----------------||----------------|
G|-----7----------||-----7----------|
D|9----7---7----9-||9----7---7----9-|
A|9----5---7----9-||9----5---7----9-|
E|7--------5----7-||7--------5----7-|


Let the truth be known.....

E|----------------||----------------|
B|----------------||----------------|
G|------7---7/-9--||----------------|
D|7---x-7---7/-9--||----------------|
A|7---x-5---5/-7--||----------------|
E|5---x-----------||----------------|

And get stoned...

E|----------------||----------------|
B|----------------||----------------|
G|-----7----------||-----7----------|
D|9----7---7----9-||9----7---7----9-|
A|9----5---7----9-||9----5---7----9-|
E|7--------5----7-||7--------5----7-|

Please Rate!

For more Brant Bjork p-chord riffs, mail me : banjobout@hotmail.com
Tap to rate this tab
# A B C D E F G H I J K L M N O P Q R S T U V W X Y Z