Bjork Brant - 73 tab

E|----------------------|
B|----------------------|
G|----------------------|
D|8-----------8-8--8----|
A|6-8-8---8---6-6--6--8-|
E|--6-6---6-----------6-|

E|----------------------|
B|----------------------|
G|----------------------|
D|6-----------6-6--6----|
A|4-6-6---6---4-4--4--6-|
E|--4-4---4-----------4-|
Tap to rate this tab
 
# A B C D E F G H I J K L M N O P Q R S T U V W X Y Z