Song name
# A B C D E F G H I J K L M N O P Q R S T U V W X Y Z

Bjork Brant - Punk Rock Guilt tab

drop D
drop all strings down one chord

main verse



|---------------------------------------------------------------------------|
|---------------------------------------------------------------------------|
|---------------------------------------------------------------------------|
|---9-9--10/12~-12----7---7-------------------------------------------------|
|--7-7--8/10~-10-----5--5----7--7-------------------------------------------|
|--------------------------5--5---------------------------------------------|


chorus

|-----------------------------------------------------------------------------|
|-----------------------------------------------------------------------------|
|-----------------------------------------------------------------------------|
|--5-5-------------7-7--------------------------------------------------------|
|-3-3---5555555---5-5-77777777------------------------------------------------|
|-----33333333-------55555555-------------------------------------------------|

do up and down strokes with a smoke in ya mouth and a beer on ya amp man
outro is easy to work out...

cheers
Ricco
Tap to rate this tab
 
# A B C D E F G H I J K L M N O P Q R S T U V W X Y Z