Song name
# A B C D E F G H I J K L M N O P Q R S T U V W X Y Z

Bjork Brant - Avenida De La Revolucion tab

Artist Name: Brant Bjork
Song Name: Avenida de la Revolucion
Album: Saved by Magic
Tabbed by Ogion 2012

Just sussed the rhythm out then. Dunno if it sounds better dropped down a
whole step like Brant likes to do usually, I suppose it does, and I suppose
it is. Give it a crack. Thanks Brant for your awesomely cool tunes. I just
want to go for a lazy shuffle now and blow a scoob. Cheers mate.

E|-----------------------------|
B|-----------------------------|
G|-----------------------------|
D|-----------------------------|
A|---------5--7--------10--9v--|
E|--5h6h7--------5--7----------| x3


E|------------------------------------|
B|------------------------------------|
G|------------------------------------|
D|------------------------------------|
A|---------5--7--------10h12p10--9----|
E|--5h6h7--------5--7-----------------|

Repeat this whole thing numerous times.




Then the bit at 1:41

E|-----------------------------|
B|-----------------------------|
G|-----------------------------|
D|-----------------------------|
A|--9--5------------9--5-------|
E|----------7--3------------0--|
Tap to rate this tab
# A B C D E F G H I J K L M N O P Q R S T U V W X Y Z