Song name
# A B C D E F G H I J K L M N O P Q R S T U V W X Y Z

Bjork Brant - Gonna Make The Pony Trot tab

Intro:
-------------------------------------------------------------|
-------------------------------------------------------------|
-------------------------------------------------------------|
-------------------------------------------------------------|
--------5/7---------5/7-----------5-----5--5--7--------------|
--0--0-------0---0-------0--5--7-----7-----------------------|

-------------------------------------------------------------|
-------------------------------------------------------------|
-------------------------------------------------------------|
---------------------------------5--5------------------------|
--------5/7---------5/7-----5/7------------------------------|
--0--0-------0---0-------0-----------------------------------|

Donīt know if the Tabs are written right but the single tunes are.
Let the rock roll!
Tap to rate this tab
 
# A B C D E F G H I J K L M N O P Q R S T U V W X Y Z