Guitaretab - guitar tabs
Song name
# A B C D E F G H I J K L M N O P Q R S T U V W X Y Z

Bjork - Unravel tab

-------------------------------------------------------------------------------
			     Unravel - Bjork
-------------------------------------------------------------------------------
Tabbed by: Dan Jensen
Email: dbj2479@yahoo.com

Tuning: standard

I listened a few times and tried some chords out. I think this is as close as you can 
If there are any other suggestions/variations, feel free to comment. Thanks!

Beginning
[ Tab from: http://www.guitaretab.com/b/bjork/252899.html ]
e|---------------------------------------------------------------------------|
B|---------------------------------------------------------------------------|
G|--------------------------2-------4---0-------------2--------4---0---------|
D|------------------------------0-------------------------0------------------|
A|--3---5---3---5---3---5--------------------3---5---------------------------|
E|---------------------------------------------------------------------------|

Verse and Chorus

e|---------------2---------2-----------5---------3-----------------------------|
B|------1--------3---------3-----------3---------3-----------------------------|
G|---------------2---------4-----------4---------4-----------------------------|
D|------2------------------4-----------5---------5-----------------------------|
A|------3------------------2---------------------------------------------------|
E|-----------------------------------------------------------------------------|

        C       D         Bm          Gadd9      Gm
        2x      2x        2x            1x        1x
Related for Unravel tab
Unravel chords by Bjork