Song name
# A B C D E F G H I J K L M N O P Q R S T U V W X Y Z

Bjork - Pneumonia tab

-------------------------------------------------------------------------------
			     PNEUMONIA - Björk
-------------------------------------------------------------------------------

OK, so this is really basic. I just tabbed one time each sequence, so you should listen 
to the song along to know when to change from one sequence to another.

Oh, and be sure to keep the lower note hanging through the duration of each sequence, 
that's important.

e|-----------0-------------0----------------------------------5--------------|
B|--------3-------------3------------------3---------------3-----------------|
G|-----5-------------5------------------5---------------5--------------------|
D|--2--------------------------------7---------------7-----------------------|
A|----------------3---------------3---------------3--------------------------|
E|---------------------------------------------------------------------------|

e|---------------------------------------------0-----------0-----5-----------|
B|-----0--1--3-----------------13--12-------------6-----------6--------------|
G|---------------------12--10---------------2-----------0--------------------|
D|--3---------------9--------------------------------------------------------|
A|---------------------------------------------------------------------------|
E|---------------------------------------------------------------------------|

e|--------0-----------------0------------------------------0-----------------|
B|-----1--------------1--3--------------1--3---------1--3--------------------|
G|-----------------------------------4------------2--------------------------|
D|--3--------------2--------------0------------------------------------------|
A|---------------------------------------------3-----------------------------|
E|---------------------------------------------------------------------------|

e|--------------------------------0------------------------------------------|
B|--------0--1-(3)----------0--3-----------------0--------------0------------|
G|--------------------------------------------2--------------2---------------|
D|-----3-----------------3-----------------3--------------3------------------|
A|--0------------------------------------------------------------------------|
E|--------------------3-----------------1--------------3---------------------|

e|---------------------------------------------------------------------0-----|
B|-----------0--------------0--------------0------------------------3--------|
G|--------2--------------2--------------2---------------2--------5-----------|
D|-----3--------------3--------------3---------------5--------2--------------|
A|--0--------------2--------------3---------------5--------------------------|
E|---------------------------------------------------------------------------|
Tap to rate this tab
# A B C D E F G H I J K L M N O P Q R S T U V W X Y Z