Song name
# A B C D E F G H I J K L M N O P Q R S T U V W X Y Z

Bjork - Solstice tab

-------------------------------------------------------------------------------
                                SOLSTICE - Bjork
-------------------------------------------------------------------------------

Tuning: Standart
Q=107
Capo 7

--------- 19/4 ---------

   Q   Q   Q   Q   Q   Q   Q     Q   Q   Q   Q   Q   Q
|--5---3----------------------|-------------------------|
|--------------6---4----------|--3---3-------3---4---6--|
|--------------------------5--|----------5--------------|
|----------0-----------0------|-------------------------|
|-----------------------------|-------------------------|
|-----------------------------|-------------------------|
                           
   Q   Q   Q   Q   Q   Q   
|-------------------------|
|--3---3-------3---4---6--|
|----------5--------------|
|-------------------------|
|-------------------------|
|-------------------------|

---------- 18/4 ---------

  Q  Q  Q  Q  Q  Q    Q  Q  Q  Q  Q  Q     Q   Q   Q   Q   Q   Q
|-------------------|-------------------|-------------------------|
|----4-----4--------|----4-----4--------|-------------------------|
|-------------------|-------------------|------0-----------0------|
|-1-----1-----1--1--|-1-----1-----1--1--|----------3-----------3--|
|-------------------|-------------------|--3-----------3----------|
|-------------------|-------------------|-------------------------|
Tap to rate this tab
# A B C D E F G H I J K L M N O P Q R S T U V W X Y Z