Song name
# A B C D E F G H I J K L M N O P Q R S T U V W X Y Z

Bjork - Unravel tab

Artist: Bjork
Song: Unravel
CD: Homogenic
tabbed by Brandon Lahoud

I noticed the other tab wasn't the general chords but just the synthed oboe/cello so 
are the general chords that i found work the best. of course u could overlap these chords 
the other tab given for unravel. enjoy!

Intro x3

e-----------------------|
b-----------------------|
g-----------------------|
d-----------------------|
a-------3--------5------|
e-----------------------|

Verse and Chorus; repeat as needed

e------------------------------------|
b------------------------------------|
g-----5----14----7-----16--12--------|
d-----3----------7-------------------|
a-----3----12----5-----14--10--------|
e------------------------------------|
Tap to rate this tab
# A B C D E F G H I J K L M N O P Q R S T U V W X Y Z