Song name
# A B C D E F G H I J K L M N O P Q R S T U V W X Y Z

Bjorn Afzelius - Martinez Mondragons Beknnelse tab

Help us improve GuitareTab! Take a short survey!
Seor Martinez Mondragons beknnelse, Bjrn Afzelius
-----------------------------------------------------

A swedish song by Bjrn Afzelius and Mikael Wiehe, I found the chords and text 
I hope no one feels offended for borrowing it. I made the tab

myself after I had figured out how to pick the chords. I ain't sure if the intro is 
the same way though, alternatively (if you REALLY want an intro)

you could just play the verse as an intro I guess. Have fun with this very touching song!

   Am                     C
|-----------|-----------|-----------|-----------|
|-0---------|-0---------|-3---------|-3---------|
|-----------|-----------|-----------|-----------|
|--------2--|--------2--|--------2--|--------2--|
|------1----|------1----|------1----|------1----|
|----0------|----0------|----0------|----0------|

   Am                     C
|-----------|-----------|-----------|-----------|
|-0---------|-0---------|-3---------|-3---------|
|-----------|-----------|-----------|-----------|
|--------2--|--------2--|--------2--|--------2--|
|------1----|------1----|------1----|------1----|
|----0------|----0------|----0------|----0------|

  G                       Am
|-3---------|-3---------|-----------|-----------|
|-----------|-----------|-0---------|-0---------|
|-----------|-----------|-----------|-----------|
|--------0--|--------0--|--------2--|--------2--|
|------0----|------0----|------1----|------1----|
|----3------|----3------|----0------|----0------|
  G                       Am          G
|-3---------|-3---------|-----------|-3---------|
|-----------|-----------|-0---------|-----------|
|-----------|-----------|-----------|-----------|
|--------0--|--------0--|--------2--|--------0--|
|------0----|------0----|------1----|------0----|
|----3------|----3------|----0------|----3------|

Intro	: Em   G    G

         Am                     C
1.Vi lmmnade vrt lger innan solen brutit fram,
         Am                     C
  vi var elva meniga och en kapten i vrt frband.
     G                           Am
  Vi gick mot Nicaragua, grnsen nddes klockan sju,
      G                        Am                G
  och redan klockan tta kom vi fram till frsta byn.


2.Vr uppgift var att rekrytera bnder ifrn byn,
  men det tycktes som dom flesta av dom redan hunnit fly.
  Vi fann dock en som gmdes sig i brunnen p ett torg.
  Nr vi hitta honom kapade vi tampen, mest p skoj.

3.Han kunde inte simma, det blev allvarligt en stund.
  Hans hustru stod och ylade som om hon var en hund.
  Vi drog honom ur vattnet och vi krvde ngra svar,
  bland annat p varthn dom andra hade gett sig av.

4.Han skakade p huvet och slog ut med armarna,
  han flldes av kaptenen med en spark mot tarmarna.
  Den stackarn brja grta, och be fr sina barn,
  och han svor vid alla helgon att han hade inga svar.

5.Frhren ledde ingen vart, trots allehanda hot,
  frhrsledarn, kaptenen, miste snart sitt tlamod.
  Han frste ut en order, ngra meniga gick fram
  och snart lg hustrun bunden i torgets heta sand.

6.Dom vldtog henne omsorgsfullt, jag minns att dom var tre.
  Hennes man blev s pass upprrd att han mste lugnas ner.
  Tyvrr tog slaget illa, kanske var han lite sprd,
  fr nr det hela vl var ver s var bonden faktiskt dd.

7.Nr kvinna slpptes skrek hon att hon ocks mste d.
  Hon klste sig i skrevet s att klnningen blev rd.
  Jag kunde inte se det, jag mste titta bort,
  men kaptenen tog sitt ansvar och han gjorde pinan kort.

8.Jag har svrt i efterhand att sjlv begripa det som skett.
  Man kan hnvisa till varje krigs frrande effekt.
  Det kan va en delfrklaring att jag ej ar sandinist,
  men jag tycker inte sjlv det gr historien mindre trist.

9.Vi mrdade tv fattiga, det r en evig skam.
  Men jag hoppas att jag tillts kompensera det jag kan.
  S med juryns goda minne vill jag trffa deras barn,
  och jag skall gra allt jag mktar fr att hedra mor och far.

10.Jag str i alla hndelser till ert frfogande.
  Jag har instllt mig hr frivilligt, jag mrdar aldrig mer.
  Jag avsvr mig nu Contras, CIA och Pentagon,
  och herrarna som kpte mig i det fjrran Washington.

11....dom lmnade sitt lger innan solen brutit fram,
  dom var tio meniga och en kapten i sitt frband.
  Dom gick mot Nicaragua, grnsen nddes klockan sju,
  och redan klockan tta kom dom fram till nsta by...
Related for Martinez Mondragons Beknnelse tab