Song name
# A B C D E F G H I J K L M N O P Q R S T U V W X Y Z

Bjorn Afzelius - Ikaros tab

Hi! Here comes the intro from Björn Afzelius Ikaros

This tab is easy. It is only played on the lower E string.

Intro:

 E --6-7-9-9-9-9---7-6-4-4-2--------|
 B ---------------------------------|
 G ---------------------------------|
 D ---------------------------------|
 A ---------------------------------|
 E ---------------------------------|

 E --4-6-7-7-7-7-6-4-2-(2)----------|
 B ---------------------------------|
 G ---------------------------------|
 D ---------------------------------|
 A ---------------------------------|
 E ---------------------------------|

Solo/Outro

 E --6-7-9-9-9-9---7-6-4-4-2--------|
 B ---------------------------------|
 G ---------------------------------|
 D ---------------------------------|
 A ---------------------------------|
 E ---------------------------------|

 E -7-9-11-11-11-11-9-7-6-4---------|
 B ---------------------------------|
 G ---------------------------------|
 D ---------------------------------|
 A ---------------------------------|
 E ---------------------------------|

 E -4-6-7-7-7-7-9-7-6-4-7-6---------|
 B ---------------------------------|
 G ---------------------------------|
 D ---------------------------------|
 A ---------------------------------|
 E ---------------------------------|

 E -4-6-7-7-7-7-9-11-13-13-11-------|
 B ---------------------------------|
 G ---------------------------------|
 D ---------------------------------|
 A ---------------------------------|
 E ---------------------------------|


 E -9-9-9-9-7-6-4-4-2---------------|
 B ---------------------------------|
 G ---------------------------------|
 D ---------------------------------|
 A ---------------------------------|
 E ---------------------------------|


 E -4-6-7-7-7-7-6-4-2---------------| Let it ring.
 B ---------------------------------|
 G ---------------------------------|
 D ---------------------------------|
 A ---------------------------------|
 E ---------------------------------|

	   
Tap to rate this tab
# A B C D E F G H I J K L M N O P Q R S T U V W X Y Z