Song name
# A B C D E F G H I J K L M N O P Q R S T U V W X Y Z

Bjorn Gelotte - New Beginnings tab

e|----------------------------------------------------------------------|
B|----------------------------------------------------------------------|
G|--8-------------------8-----7h8p7------------7-----8------------------|
D|--------10-----10----------------------8----------------10-----10-----|
A|----------------------------------------------------------------------|
E|----------------------------------------------------------------------|
                                                                         4X
e|----------------------------------------------------------------------|
B|--8-----6h8p6-----------6-----8---------------------------------------|
G|------------------8---------------------------------------------------|
D|----------------------------------------------------------------------|
A|----------------------------------------------------------------------|
E|----------------------------------------------------------------------|



e|----------------------------------------------------------------------|
B|----------------------------------------------------------------------|
G|------------------------------7---------------------------------------|
D|--8-------------8----8---10-------7-------7-------10---10---8---7-----|
A|------10---10-------------------------8-------8-----------------------|
E|----------------------------------------------------------------------|

e|----------------------------------------------------------------------|
B|----------------------------------------------------------------------|
G|---------------8----7----7h8p7----------------------------------------|
D|--8---7---8----------------------10----8----10---------10-------------|
A|--------------------------------------------------8-------------------|
E|----------------------------------------------------------------------|

e|----------------------------------------------------------------------|
B|----------------------------------------------------------------------|
G|------------------------------7---------------------------------------|
D|--8-------------8----8---10--------7-------7-------10---10---8---7----|
A|------10---10--------------------------8-------8----------------------|
E|----------------------------------------------------------------------|

e|----------------------------------------------------------------------|
B|----------------------------------------------------------------------|
G|---------------8-----7----7h8p7---------------------------------------|
D|--8---7---8-----------------------10---8---10-------10----------------|
A|------------------------------------------------8---------------------|
E|----------------------------------------------------------------------|

e|----------------------------------------------------------------------|
B|----------------------------------------------------------------------|
G|-----------------------------7----------------------------------------|
D|--8-------------8---8---10-------7-------7-------10---10---8---7------|
A|------10---10------------------------8-------8------------------------|
E|----------------------------------------------------------------------|

e|----------------------------------------------------------------------|
B|----------------------------------------------------------------------|
G|---------------8-----7----7h8p7---------------------------------------|
D|--8---7---8-----------------------10---8---10-------10----------------|
A|------------------------------------------------8---------------------|
E|----------------------------------------------------------------------|
Tap to rate this tab
# A B C D E F G H I J K L M N O P Q R S T U V W X Y Z