Song name
# A B C D E F G H I J K L M N O P Q R S T U V W X Y Z

Bjorn Rosenstrom - En Kulen Kvall chords

Highlighted       Show chord diagrams
Björn Rosenström - En Kulen Kväll (1996)
Ackord 29/3-2012 av Jon Malmin (jogusmal@hotmail.com)
E-stämning, capo på 2:a bandet.

Ackorden är samma för varje vers, bara att plugga in den första så 
kan du resten sen!

Intro: Bm

     Bm
Jag sitter här en kulen kväll och tittar ut genom fönstret 
     Em                                  Bm
Jag ser en man, jag ser en hund och jag undrar vart dom är på väg 
                  Em    G
Ska dom till New York? 
F#
Nej! 

Jag sitter här en kulen kväll och tittar ut genom fönstret 
Jag ser en präst, en präst jag ser och jag undrar vart han är på väg 
Ska han till New York? 
Nej! 

Solo: Bara Bm hela tiden... (Tab nedan!)

Jag sitter här en kulen kväll och tittar ut genom fönstret 
Allt jag ser är allt jag ser och jag undrar vart det är på väg 
Ska det till New York? 
F#
Nej… 
Bm      F#
.......Nej... 
Bm
NEEEJ!! 

Solo:
E||-------------------------|------------------------|
B||-----2--3--2--3--2-------|-----2--3--2--3---------|
G||--4-----------------4----|--4----------------4----|
D||-------------------------|------------------------|
A||-------------------------|------------------------|
E||-------------------------|------------------------|
      
|-------------------------|-----------------------||
|-----2--3--2--3--2--3----|--5--5--3--3-----------||
|--4----------------------|--------------4--------||
|-------------------------|-----------------------||
|-------------------------|-----------------------||
|-------------------------|-----------------------||
Tap to rate this tab
# A B C D E F G H I J K L M N O P Q R S T U V W X Y Z