Song name
# A B C D E F G H I J K L M N O P Q R S T U V W X Y Z

Bjorn Rosenstrom - En Gng Om Dagen tab

Artist: Björn Rosenström
Titel: En gång om dagen

En gång om dagen får jag ont i magen

       EM             C              G               DM
e--------------|--------------|--------------|--------------|
b--------------|--------------|--------------|--------3-----|
g--------0-----|--------0-----|--------0-----|-----2--------|
d-----2-----2--|-----2--------|-----0-----0--|--0-----------|
a--------------|--3-----------|--------------|--------------|
E--0-----------|--------------|--3-----------|--------------|

Då tänker jag på dig så går min magverk över                     x2

      EM             C              DM               G
e--------------|--------------|--------------|--------------|
b--------------|--------------|--------3-----|--------------|
g--------0-----|--------0-----|-----2-----2--|--------0-----|
d-----2-----2--|-----2--------|--0-----------|-----0--------|   
a--------------|--3-----------|--------------|--------------|
E--0-----------|--------------|--------------|--3-----------|

mellanspel  EM  C  G  DM

En gång på tusen får du ont i musen

       EM             C              G               DM
e--------------|--------------|--------------|--------------|
b--------------|--------------|--------------|--------3-----|
g--------0-----|--------0-----|--------0-----|-----2--------|
d-----2-----2--|-----2--------|-----0-----0--|--0-----------|
a--------------|--3-----------|--------------|--------------|
E--0-----------|--------------|--3-----------|--------------|

Då kommer jag till dig så går min musvärk över

      EM             C              DM               G
e--------------|--------------|--------------|--------------|
b--------------|--------------|--------3-----|--------------|
g--------0-----|--------0-----|-----2-----2--|--------0-----|
d-----2-----2--|-----2--------|--0-----------|-----0--------|   
a--------------|--3-----------|--------------|--------------|
E--0-----------|--------------|--------------|--3-----------|

En gång på tusen får du ont i musen

       EM             C              G               DM
e--------------|--------------|--------------|--------------|
b--------------|--------------|--------------|--------3-----|
g--------0-----|--------0-----|--------0-----|-----2--------|
d-----2-----2--|-----2--------|-----0-----0--|--0-----------|
a--------------|--3-----------|--------------|--------------|
E--0-----------|--------------|--3-----------|--------------|

Då hjälper jag dig snällt för jag vet vad du behöver

      EM             C              DM               (G x4)
e--------------|--------------|--------------|--------------|
b--------------|--------------|--------3-----|--------------|
g--------0-----|--------0-----|-----2-----2--|--------0-----|
d-----2-----2--|-----2--------|--0-----------|-----0-----0--|   
a--------------|--3-----------|--------------|--------------|
E--0-----------|--------------|--------------|--3-----------|

En [G] bok, en [C] filt, och en [D] kopp cho[G]klad



Tap to rate this tab
# A B C D E F G H I J K L M N O P Q R S T U V W X Y Z