Song name
# A B C D E F G H I J K L M N O P Q R S T U V W X Y Z

Bla Brigader - I Fablernas Varld tab

Blä Brigader - I Fablernas Värld

By: skyturnedred@gmail.com

Tuning: Standard EADGBe

. = Palm-mute


INTRO:

Gtr1
|----------------------------------------------------|
|----------------------------------------------------|
|-----6----------------------------6-----------------|
|---6---6----------7------6------6---6-------7-----6-| Let ring.
|-4--------------7------6------4-----------7-----6---|
|--------------5------4------------------5-----4-----|

Gtr2
|----------------------------------------------------|
|-----------------7----------------------------------|
|-6--------6-8-9----9-8-8h9p8--6------6-8-9---6------|
|----------------------------------------------------|
|----------------------------------------------------|
|----------------------------------------------------|


[00:15]
Gtr1 
|----------------------------------|
|----------------------------------|
|-66666666666666666666666666666666-|
|-66666666666666666666666666666666-|
|-44444444444444444444444444444444-|
|----------------------------------|



[00:20] RIFF1
Gtr1
|-------------------------------------|
|-------------------------------------|
|-66666666----------------------------| 
|-66666666--------7777-7-77-6666-6-66-|----|
|-44444444--------7777-7-77-6666-6-66-|    |
|-----------------5555-5-55-4444-4-44-|    |
                                           |
Gtr2                                       |--> x2
|-------------------------------------|    |
|------------------------7------------|    |
|-6--66-6-8-9-6---9-99-9--9-8---------|    |
|-------------------------------------|----|
|-------------------------------------|
|-------------------------------------|


[00:29]
Gtr1
|---------------------------------------------|
|---------------------------------------------|
|-----------------------------------66666666--|
|-7777-6666-7777-6666-7777-6666-2-4-66666666--|
|-7777-6666-7777-6666-7777-6666-2-4-44444444--|
|-5555-4444-5555-4444-5555-4444-0-2-----------|

Gtr2                                       
|-----------------------------------------|
|----7------------7---------7-------------|
|-9-9--9-8-6-8-9-9--9-8--9-9--9-8----8-6--|
|----------------------------------9------|
|-----------------------------------------|
|-----------------------------------------|



[00:38] VERSE

|---------------------|
|---------------------|
|-666666666-----------|
|-666666666-7777-6666-| x2
|-444444444-7777-6666-|
|-----------5555-4444-|

|---------------------------------------------|
|---------------------------------------------|
|-----------------------------------66666666--|
|-7777-6666-7777-6666-7777-6666-2-4-66666666--|
|-7777-6666-7777-6666-7777-6666-2-4-44444444--|
|-5555-4444-5555-4444-5555-4444-0-2-----------|


[00:58] CHORUS

|------------------------------------|
|------------------------------------|
|-7-77-777-9-99-999------------------|
|-7-77-777-9-99-999-7-77-77-7-77-77--| x2
|-5-55-555-7-77-777-7-77-77-7-77-77--|
|-------------------5-55-55-5-55-55--|

|------------------------------------|
|------------------------------------|
|-7-77-777-9-99-999------------------|
|-7-77-777-9-99-999-7-76-64-4-44-44--| x2
|-5-55-555-7-77-777-7-76-64-4-44-44--|
|-------------------5-54-42-2-22-22--|



[01:16]
Repeat RIFF1
Repeat VERSE
Repeat CHORUS

[02:12]
Repeat RIFF1
Repeat VERSE
Repeat CHORUS

[03:06]
Repeat RIFF1


[03:26] OUTRO

|----------------------------------------------------|
|----------------------------------------------------|
|-----6----------------------------6-----------------|
|---6---6----------7------6------6---6-------7-----6-| Let ring.
|-4--------------7------6------4-----------7-----6---|
|--------------5------4------------------5-----4-----|
Tap to rate this tab
# A B C D E F G H I J K L M N O P Q R S T U V W X Y Z