Song name
# A B C D E F G H I J K L M N O P Q R S T U V W X Y Z

Bla Fleck And The Flecktones - Sea Brazil tab

I've spent the last couple of days trying to figure out an effective way to play this on
guitar, here's what I've come up with so far. It's fairly difficult to just jump in and
play this up to speed, I've been playing it slow and internalizing it to work my way up. 
Good luck and have fun Fleckin'!

Béla Fleck and the Flecktones
"Sea Brazil"
From the album Bela Fleck and the Flecktones (1990)

      4/4
-----|-------------------5------------|-------------------3------------|
-0---|-3---3-----0-------------0------|-3---3-----0-------------0------|
---5-|.------5-------5-----5-5----5---|-------5-------5-----5-5----5---|
-----|.--3-----3---3---3------------3-|---2-----2---2---2------------2-|
-----|--------------------------------|--------------------------------|
-----|--------------------------------|--------------------------------|



                                  2/4
-------------------2-------------|---------3------|
-3---3-----0-------------0---0-1-|-3--3-1----0----|
-------5-------5-------5---0-----|-------------5-.|
---0-----0---0---0---0-----------|-3----2--------.| x4
---------------------------------|----------------|
---------------------------------|----------------|
Tap to rate this tab
# A B C D E F G H I J K L M N O P Q R S T U V W X Y Z