Song name
# A B C D E F G H I J K L M N O P Q R S T U V W X Y Z

Black And Grey - Goodbye Misery tab

          -------------------------------------------------------------------------------
                                                       Goodbye Misery - Black and Grey
          -------------------------------------------------------------------------------



Tabbed by: brodyhood

E-mail: brodyhood@hotmail.com



Hey guys! this is my first tab so it may not be fully correct
so dont hate too much :P one of my favorites by Black and Grey
and i have yet to find it on here so i decided to put it up myself. 
hope you enjoy! any corrections or suggestion, im completely open to :)


Tuning: Standard

Intro/verse:

e|-------------------------------------------------------------|
B|-------------------------------------------------------------|
G|---------------0-------------------------0-------------------|
D|-------5-----------5------------\4-----------4---------------|
A|---7-------7-----------7---\5--------5-----------5-----------|
E|-------------------------------------------------------------|

e|-------------------------------------------------------------|
B|-------------------------------------------------------------|
G|---------------0-------------------------0-------------------| 
D|-------5-----------5------------\4------------4--------------|
A|---3-------5-----------3----3--------3------------3----------|
E|-------------------------------------------------------------|



Chorus:
     
e|-------------------------------------------------------------|
B|-------------------------------------------------------------|
G|---0-0000----0-0000----0-0000----0-0000----0-0000----0-0000--|
D|---5-5555----5-5555---\4-4444----4-4444----5-5555----5-5555--|
A|---7-7777----7-7777---\5-5555----5-5555----3-3333----3-3333--|
E|---0---------0---------0---------0---------0---------0-------|

e|-----------------------|
B|-----------------------|
G|---0-0000----0--0000---|
D|--\4-4444---\5--5555---|
A|---3-3333----3--3333---|
E|---0---------0---------|

e|-------------------------------------------------------------|
B|-------------------------------------------------------------|
G|---0-0000----0-0000----0-0000----0-0000----0-0000----0-0000--|
D|---5-5555----5-5555---\4-4444----4-4444---\5-5555----5-5555--|
A|---7-7777----7-7777---\5-5555----5-5555---\3-3333----3-3333--|
E|---0---------0---------0---------0---------0---------0-------|



She wakes up, looks in the mirror, 
doesn't like what she sees, 
she thinks that, it can't get any clearer, 
through the eyes of society. 

Mistakes she made,Giving up, 
The feeling of being nothing at all, 
Speechless face, tears that fall, 
drowning in hate, don't fit in at all, 

Goodbye misery, you bring me down, 
I can't stand up, you make me fall, 
Goodbye misery, your not what i need, 
you are the end of me, 

First days like, her secret she carries, 
but everyone knows, 
Her past life, something she can't bury, 
so she sits all alone, 

hurtful words, this is hell, 
wishes that she kept this to herself, 
things they heard, show and tell, 
everything crumbles to nothingville, 

Goodbye misery, you bring me down, 
I can't stand up, you make me fall, 
Goodbye misery, your not what i need, 
you are the end of me, 

A new place, different school, 
different city, but nothing really changed, 
how can a single girl thats so pretty?, 
keep herself from the estranged, 

Beaten up,sinking down, 
can't fight the pain, 
so she cuts herself, 
fiercely judged,pushed around, 
same thing she goes through in every town, 

Goodbye misery, you bring me down, 
I can't stand up, you make me fall, 
Goodbye misery, your not what i need, 
you are the end of me, 

Goodbye misery, you bring me down, 
I can't stand up, you make me fall, 
Goodbye misery, your not what i need, 
you are the end of me, 
you are the end of me, 
you are the end of me.



************************************

| /   slide up
| \   slide down

************************************

Tap to rate this tab
# A B C D E F G H I J K L M N O P Q R S T U V W X Y Z