Song name
# A B C D E F G H I J K L M N O P Q R S T U V W X Y Z

Black Bone Child - By My Hand tab

Black Bone Child
By My Hand
http://www.blackbonechild.com/

Open G w/ a slide

This song is pretty simple. Iím not going to tab out the song structure, but here
are all of the parts.

Main Riff

D----------------------------------------------------------|
B----------------------------------------------------------|
G-0--2/3-0-0-------------0-0-0-----------------------------|
D-0--2/3-0-0--2/3-0-2/3--0-0-0-----------------------------|
G-0--2/3-0-0--2/3-0-2/3------------------------------------|
D-------------2/3-0-2/3------------------------------------|

It becomes this (2 different endings):

D-------------------------------|-----|--------------------|
B-------------------------------|-----|--------------------|
G-0--2/3-0-0-------------0-0-0--|-0---|--/5--5-5-5-5-5-5-5-|
D-0--2/3-0-0--2/3-0-2/3--0-0-0--|-0---|--/5--5-5-5-5-5-5-5-|
G-0--2/3-0-0--2/3-0-2/3---------|-----|--------------------|
D-------------2/3-0-2/3---------|-----|--------------------|
			          ^ Let Ring

Chorus

"Held up and cut down by my handĒ

D----------------------------------------------------------|
B-/7-7--5-5--2/3-2/3-0-------------------------------------|
G-/7-7--5-5--2/3-2/3-0-------------------------------------|
D-/7-7--5-5--2/3-2/3-0-------------------------------------|
G----------------------------------------------------------|
D----------------------------------------------------------|
Tap to rate this tab
# A B C D E F G H I J K L M N O P Q R S T U V W X Y Z